Гражданская Оборона - На наших глазах (Соло), аккорды новинка

Прокрутка
Тональность
Шрифт
100
Проигрыш
E|----------------------------------------------------------------------|
B|----------------------------------------------------------------------|
G|-----------------------10-9-10------------------12-12-12-12-10-9------|
D|-10--10-9-10-12-10--10---------10--10-9-10-12-10------------------10--|

Куплет 1
На карте кружком обозначено солнце
Пунктирные линии -ветер и соль
Под веками плавают сны на оконце
Спадает волнами зелёная боль

Припев
На наших глазах разрушаются стены
Срастаются руки, теряя контроль
И время уходит с загаженной сцены
Его заменяет вселенский покой

E|----------------------------------------------------------------------|
B|----------------------------------------------------------------------|
G|-----------------------10-9-10------------------12-12-12-12-10-9------|
D|-10--10-9-10-12-10--10---------10--10-9-10-12-10------------------10--|

Вселенский покой, вселенский покой

Куплет 2
Мы вышли за рамки людских представлений
И даже представить себе не могли
Что выше всех горестей, бед и мучений
Мы будем под слоем промёрзшей земли

Припев
На наших глазах исчезают потери
Душа выпускает скопившийся страх
Я слышу шаги, открываются двери
И смерть исчезает на наших глазах

E|----------------------------------------------------------------------|
B|----------------------------------------------------------------------|
G|-----------------------10-9-10------------------12-12-12-12-10-9------|
D|-10--10-9-10-12-10--10---------10--10-9-10-12-10------------------10--|

На наших глазах, на наших глазах

E|--------------------------------------|
B|-13--13-12-13-15-13--13-12-10---------|
G|------------------------------12-10-9-|
D|--------------------------------------|x4


E|----------------------------------------------------------------------|
B|----------------------------------------------------------------------|
G|-----------------------10-9-10------------------12-12-12-12-10-9------|
D|-10--10-9-10-12-10--10---------10--10-9-10-12-10------------------10--|


Куплет 1: Повтор
На карте кружком обозначено солнце
Пунктирные линии, ветер и соль
Под веками плавают сны на оконце
Спадает волнами зелёная боль

E|----------------------------------------------------------------------|
B|----------------------------------------------------------------------|
G|-----------------------10-9-10------------------12-12-12-12-10-9------|
D|-10--10-9-10-12-10--10---------10--10-9-10-12-10------------------10--|

Припев
На наших глазах исчезают потери
Душа выпускает скопившийся страх
Я слышу шаги, — открываются двери
И смерть исчезает на наших глазах

E|----------------------------------------------------------------------|
B|----------------------------------------------------------------------|
G|-----------------------10-9-10------------------12-12-12-12-10-9------|
D|-10--10-9-10-12-10--10---------10--10-9-10-12-10------------------10--|

На наших глазах, на наших глазах
 
 
Свернуть Распечатать