Гражданская Оборона - Нож в спину, аккорды

Прокрутка
Тональность
Шрифт
100
 Intro: Bb C F D Bb C F

  Dm
 Я в этом городе жил и носил в кармане кастет
  Dm
 Иначе я был бы бит
  Dm
 Иначе я был бы бит
  Bb
 И я в этом городе жил и очень любил "Назарет"
             Gm
 Иначе я был бы бит
             C
 Иначе я был бы бит
  Bb
 Я в этом городе жил стараясь не знать много слов
             Gm
 Иначе я был бы бит
             C
 Иначе я был бы бит
  Bb
 И я в этом городе жил стараясь иметь ебло
             Gm
 Иначе я был бы бит
             C
 Иначе я был бы бит

      Bb                    C
    Пока вам нужен был только мой яд
      F
    В гомеопатических дозах любви
      Bb                    C
    Но вам понадобился именно я
      F
    И вы получите нож в спину
      Bb     C     F
    Нож в спину - это как раз буду я
      Bb     C     F
    Нож в спину - это как раз буду я

  Bb
 Союз происходит от слова "боюсь"
             Gm
 Союз происходит от слова "убьюсь"
             C
 Союз происходит от слова "убью", да

      Bb                    C
    Пока вам нужен был только мой яд
      F
    В гомеопатических дозах любви
      Bb                    C
    Но вам понадобился именно я
      F
    И вы получите нож в спину
      Bb     C     F
    Нож в спину - это как раз был я
      Bb     C     F
    Нож в спину - это как раз буду я

Комментарий автора:

Комментарий от пользователя GrognackBarbarian:

Solo:
1)----------------8------------------------------
2)6-6-8-10-8-6-5-6-10--6-6-8-10-8-6-5-6--5/6-5/6-
3)-7--------------------7------------------------

1)----------------8---------------------
2)6-6-8-10-8-6-5-6-10--6-6-8-10-8-6-5-6-
3)-7--------------------7---------------

Bass: (В основном просто повторяются ноты аккордов (Иногда делаются слайды от D до F# ("Я в этом городе") и от F# до G ("Иначе я был бы бит" после Назарет)))

Вступление:
2)-----------33333-00000------------33333-2/3-2/3
3)11111-33333------------11111-33333-------------

2)-----------33333-00000------------33333-
3)11111-33333------------11111-33333------
 
 

Видео