Гражданская Оборона - Все как у людей, аккорды

Прокрутка
Тональность
Шрифт
100
Вступление: Bmsus4 Bm/F# | Bmsus4 Bm/F#
            F#sus4 F# | F#sus4 F#

Вступление: 
E|-0-0-0-2-2-2-2-2-0-0-0-2-2-2-2-0-----------------------------0-0-
B|-3-3-3-3-3-3-3-3-3-3-3-3-3-3-3-3-0-0-0-2-2-2-2-2-0-0-0-2-2-2-2-2- x2
G|-4-4-4-4-4-4-4-4-4-4-4-4-4-4-4-4-3-3-3-3-3-3-3-3-3-3-3-3-3-3-3-3-
D|-4-4-4-4-4-4-4-4-4-4-4-4-4-4-4-4-4-4-4-4-4-4-4-4-4-4-4-4-4-4-4-4-

Em             F#  Bm G
Вот и все, что было -
Em        F#  Bm G
Не было и нету.
Em          F#   Bm G
Все слои размокли,
Em           F#
Все слова истлели.

Припев:
     Bm          G  Em F#
     Все как у людей.
     Bm          G  Em F#
     Все как у людей.

Em        F#  Bm G
В стоптанных ботинках -
Em        F# Bm G
Годы и окурки.
Em        F#  Bm G
В стираных карманах -
Em           F#
Паспорта и пальцы.

Припев:
     Bm          G  Em F#
     Все как у людей.
     Bm          G  Em F#
     Все как у людей.

Em        F#  Bm G
Резвые колеса,
Em        F#  Bm G
Прочные постройки.
Em        F# Bm G
Новые декреты,
Em           F#
Братские могилы.

Припев:
     Bm          G  Em F#
     Все как у людей.
     Bm          G  Em F#
     Все как у людей.

Проигрыш: Bmsus4 Bm/F# | Bmsus4 Bm/F#
          F#sus4 F# | F#sus4 F#

Проигрыш:   
E|-0-0-0-2-2-2-2-2-0-0-0-2-2-2-2-0-----------------------------0-0-
B|-3-3-3-3-3-3-3-3-3-3-3-3-3-3-3-3-0-0-0-2-2-2-2-2-0-0-0-2-2-2-2-2- x2
G|-4-4-4-4-4-4-4-4-4-4-4-4-4-4-4-4-3-3-3-3-3-3-3-3-3-3-3-3-3-3-3-3-
D|-4-4-4-4-4-4-4-4-4-4-4-4-4-4-4-4-4-4-4-4-4-4-4-4-4-4-4-4-4-4-4-4-

Em        F#  Bm G
Вот и все, что было -
Em        F#  Bm G
Не было и нету.
Em        F#  Bm G
Правильно и ясно,
Em           F#
Здорово и вечно.

Припев: x2
     Bm          G  Em F#
     Все как у людей.
     Bm          G  Em F#
     Все как у людей.
     Все!!!

Комментарий автора:

Подбор вступления / проигрыша - пользователь shidar.
 
 
Свернуть Распечатать

Видео