Гражданская Оборона - КГБ, аккорды

Прокрутка
Тональность
Шрифт
100
Вступление:
e|---------------|------------------|
B|---------------|------------------|
G|-9------7------|------------------|
D|-9------7------|--7------9--------| x2
A|-7------5------|--7------9--------|
E|---------------|--5------7--------|

Куплет:
e|---------------|------------------|
B|---------------|------------------|
G|-9------7------|------------------|
D|-9------7------|--7------9--------| x4
A|-7------5------|--7------9--------|
E|---------------|--5------7--------|

От врагов хранят отчизну Ильича
Дети Феликса Эдмундовичача
Чтобы небо было ясным над страной
Чтоб земля стелилась пухом под тобой и подо мной

Припев:
e|--------------|------------------|    
B|--------------|------------------|  
G|-6------------|--2------4--------|  
D|-6------------|--2------4--------| x2
A|-4------------|--0------2--------|  
E|--------------|------------------|  
     
        Который день, который год
        Достойно ест и спит народ

e|-----------------|
B|-----------------|
G|-----------------|
D|-7--------9------|
A|-7--------9------|
E|-5--------7------|

        Ты будешь спать спокойно
        Ведь ты щедро охраняем КГБ, КГБ

Куплет:
e|---------------|------------------|
B|---------------|------------------|
G|-9------7------|------------------|
D|-9------7------|--7------9--------| x4
A|-7------5------|--7------9--------|
E|---------------|--5------7--------|

Наша служба и опасна, и трудна
И на первый взгляд как будто не видна
Если кто-то кое-где у нас порой
Мы успеем, мы поможем, ой-ой-ой-ой-ой-ой-ой

Припев:
e|--------------|------------------|    
B|--------------|------------------|  
G|-6------------|--2------4--------|  
D|-6------------|--2------4--------| x2
A|-4------------|--0------2--------|  
E|--------------|------------------|  
     
        Который день, который год
        Достойно ест и спит народ

e|-----------------|
B|-----------------|
G|-----------------|
D|-7--------9------|
A|-7--------9------|
E|-5--------7------|

        Ты будешь спать спокойно
        Ведь ты щедро охраняем КГБ, КГБ

e|--------------|------------------|    
B|--------------|------------------|  
G|-6------------|--2------4--------|  
D|-6------------|--2------4--------| x2
A|-4------------|--0------2--------|  
E|--------------|------------------|  
     
        Который день, который год
        Достойно ест и спит народ

e|-----------------|
B|-----------------|
G|-----------------|
D|-7--------9------|
A|-7--------9------|
E|-5--------7------|

        Ты будешь спать спокойно
        Ведь ты щедро охраняем КГБ, КГБ

Соло:
-----------------------9--7--|
-------9-10-9----------------|
--9-11--------11-9-11--------|
-----------------------------|x4
-----------------------------|
-----------------------------|
 
 

Видео