Гражданская Оборона - И снова темно, аккорды

Прокрутка
Тональность
Шрифт
100
Вступление/припев:
-------------|-----------------|
-------------|-----------------|
-------------|---6------8------|
--6------8---|---6------8------|
--6------8---|---4------6------|
--4------6---|-----------------|

Куплет:
---------------------|------------------------|
---------------------|------------------------|
---------8-----------|---6------8-------------|
--6------8----8------|---6------8------6------| x2
--6------6----8------|---4------6------6------|
--4-----------6------|-----------------4------|
Гитлер истерично вопил  Трумэн Хиросиму взрывал

---------------------------| 
---------------------------| 
--6-----------8------------| 
--6-----------8------------| 
--4-----------6------------| 
---------------------------| 
Кто-то влез - вспыхнул свет

Solo:
----------------------------------| 
----------------------------------| 
-------------------------------8--| 
-10-8-6-8---6-8---6-8-10-8-10-----| 
----------8-----8-----------------| 
----------------------------------| 

Комментарий автора:

Текст: 

Гитлер истерично вопил
Трумэн Хиросиму взрывал
Сталин миллионы давил
Ленин в мавзолее вонял
        Кто-то влез на табуретку
        На мгновенье вспыхнул свет
        И снова темно
        И снова темно
Гришка в туалете дрочил
Васька на диване пердел
Мишка вдрючил бабе из-за всех сил
Федька самогоном блевал
        Тут кто-то влез на табуретку
        На мгновенье вспыхнул свет
        И снова темно
        И снова темно
Трактора катились вперед
Берег пароходы встречал
Властвовал геройский народ
Ветер обновлений крепчал
        Кто-то влез на табуретку
        На мгновенье вспыхнул свет
        И снова темно
        И снова темно
 
 

Видео