Гражданская Оборона - Старость не радость, аккорды

Прокрутка
Тональность
Шрифт
100
Dm                   Am
Старый дедушка тихо плачет
Dm                 Am
Очень кушать ему охота
C#m                     G#m
Крысы съели всю пищу в доме
C#m                G#m
Даже корочки нету хлеба
Cm                    Gm
Холод рвется в его каморку
Cm                     Gm
Смерть стоит у его постели.
        
Dm                   Am
Старый дедушка тихо плачет
Dm                   Am
Нет родных, чтоб его утешить
C#m                   G#m
Дети умерли все в блокаду
C#m                 G#m
Дети умерли от болезней
Cm                    Gm
Холод рвется в его каморку
Cm                    Gm
Смерть стоит у его постели.

Комментарий автора:

партия для второй гитары
Проигрыш:
1|-------7-------7-7-8---8--|
2|-5-7-8---5-7-8-------7---7|   x2

Куплет:
1|-------7-------7-7-8---8--|
2|-5-7-8---5-7-8-------7---7|   x2

1|-------6-------6-6-7---7--|
2|-4-6-7---4-6-7-------6---6|   x2

1|-------5-------5-5-6---6--|
2|-3-5-6---3-5-6-------5---5|   x2
 
 
Свернуть Распечатать

Видео