Green Crow - Падди, аккорды новинка

Прокрутка
Тональность
Шрифт
100
Вступление/проигрыш 
соло х2
мелодия ложиться на следующие аккорды так что вступление можно сыграть
и ритмом 

Am  Am  Em    F C   Dm Em Am x2



       Am              G                Am        G
Жил в городе Белфасте мальчик по имени Падди,
   Am                    G                Am      G
Ходил в детский сад и котёнка по пузику гладил.
     C                 G            Dm            F
И в целом хороший был мальчик, но в голову била моча.
      Dm             Dm7        F                G 
Ведь Падди с самого детства терпеть не мог англичан.
            C      G               Am             F (G)
Увидит в песочнице англосаксонскую рожицу
          C    G            Am      F  (G)
Ногами топочет и отбирает пирожные.
     C             G                     Am      G 
И часто стоял он в углу, ведь вел себя плохо...
    F               G                 Am 
Но Падди родился ирландцем, Падди всё...


проигрыш (так же как и в вступлении можно играть ритмом


       Am                 G                  Am        G
Вот в городе Белфасте в школу пошел мальчик Падди. 
    Am             G                   Am     G
Красивая школьная форма, портфель и тетради. 
  C                 G        Dm               F
Учился довольно прилежно, но мог учудить сгоряча: 
      Dm             Dm7        F                G 
Ведь Падди с самого детства терпеть не мог англичан.
              C         G                Am        F (G)
И вот как-то раз на уроке английской грамматики 
           C     G                    Am         F (G)
В учителя Падди солью пальнул из пневматики. 
   C                  G                  Am      G 
Родителей в школу позвали: он вел себя плохо,
    F               G                Am 
Но Падди родился ирландцем, Падди всё...


проигрыш х2


   Am               G               Am     G
Успеха наш Падди добился на ниве футбола
   Am                G                Am     G
И вот против сборной Англии вышел на поле.
     C                 G       Dm                  F
К воротам как пуля помчался, едва лишь коснулся мяча, 
      Dm             Dm7        F                G 
Ведь Падди с самого детства терпеть не мог англичан.
     C                  G                 Am        F (G)
Вот мячик со свистом куда-то к трибунам уносится, 
   C                G                 Am        F (G)
А Падди с размаху бьёт вратарю в переносицу. 
         C                  G                 Am      G 
Красная карточка, с поля долой: он вел себя плохо.
          F               G                  Am 
Но Падди доволен. Падди — ирландец. Падди всё...

проигрыш х2


соло
e|------------|--------------|------------|-------------------------||
B|------------|--------------|------------|-------5-55--------------||
G|-5----------|-5------------|------------|----5-7----7-5--4--------||
D|---7-7--5---|----7-7--5----|-5-55---5---|-7-7----------7--7-5-7-7-||
A|----------7-|------------7-|------7---7-|-------------------------||
E|------------|--------------|------------|-------------------------||

Солом можно играть и так
  Am        Am        Em         F    C          Dm  Em   Am
e|---------|---------|----------|-------0-0-0--|-------------||
B|-1-------|-1-------|----------|----1-3-----3-|-1--0--------||
G|--2-2-0--|--2-2-0--|-0-0-0-0--|-2-2----------|--2--2-0-2-2-||
D|-------2-|-------2-|------2-2-|--------------|-------------||
A|---------|---------|----------|--------------|-------------||
E|---------|---------|----------|--------------|-------------||

Комментарий автора:

(G) можно играть а можно просто оставаться на F
 
 
Свернуть Распечатать

Видео