Запрещают песни Цоя, Агата Кристи, Наутилус Помпилиус, Зиверт
Отвечаем в отдельной теме

Green Day - Hitchin' A Ride, аккорды

Прокрутка
Тональность
Шрифт
100
Intro: on the violin
 

Intro-verse (bass)
Bass and drums only. heres the bass x10
|=====================|
|=====================|
|=====================|
|=7=7=5=5=4=4=3=3=3=3=| x10

Intro 2 (guitar)
|-----------------------|
|-----------------------|
|-----------------------|
|-9-9--7-7--6-6--5-5-55-| x4
|-9-9--7-7--6-6--5-5-55-|
|-7-7--5-5--4-4--3-3-33-|


Verse 2 (bass) x8
|=====================|
|=====================|
|=====================|
|=7=7=5=5=4=4=3=3=3=3=| x8


Pre chorus (guitar)
|-----------------------|
|-----------------------|
|-----------------------|
|-9-9--7-7--6-6--5-5-55-| x4
|-9-9--7-7--6-6--5-5-55-|
|-7-7--5-5--4-4--3-3-33-|


Chorus 1 (guitar)
|-------------------------------------------------|
|-------------------------------------------------|
|-------------------------------------------------|
|-222222-444444-9999-7777-6666-5555-222222-444444-|
|-222222-444444-9999-7777-6666-5555-222222-444444-|
|-000000-222222-7777-5555-4444-3333-000000-222222-|


Verse 3 (bass)
|=====================|
|=====================|
|=====================|
|=7=7=5=5=4=4=3=3=3=3=| x5

then theres a bit from the violin and then

Solo
|---------------------------------------------------------------------------
|-121212121212-151515151515-121212121212-888-777-121212121212-151515151515--
|-121212121212-151515151515-121212121212-888-777-121212121212-151515151515--
|-101010101010-131313131313-101010101010-666-555-101010101010-131313131313--
|---------------------------------------------------------------------------
|---------------------------------------------------------------------------

-------------------------------------------------------------------------------
-121212121212-151515151515-171717171717-17-15-12-15--17-15-12-15--17-15-12-10--
-121212121212-151515151515-171717171717-17-15-12-15--17-15-12-15--17-15-12-10--
--9-9-9-9-9-9-121212121212-141414141414-15-13-10-13--15-13-10-13--15-13-10--8--
-------------------------------------------------------------------------------
-------------------------------------------------------------------------------

---------------------------------------------------------------|
-12-15-12-10--12-15-17-15-12-15-17-15--12-15-17-15-1717171717--|
-12-15-12-10--12-15-17-15-12-15-17-15--12-15-17-15-1717171717--|
-10-13-10--8--10-13-15-13-10-13-15-13--10-13-15-13-1414141414--|
---------------------------------------------------------------|
---------------------------------------------------------------|


Chorus 2 / outro (guitar)
|-------------------------------------------------|
|-------------------------------------------------|
|-------------------------------------------------|
|-222222-444444-9999-7777-6666-5555-222222-444444-|
|-222222-444444-9999-7777-6666-5555-222222-444444-|
|-000000-222222-7777-5555-4444-3333-000000-222222-|

|-------------------------|
|-------------------------|
|-------------------------|
|-9999-12121212-5555-4444-|
|-9999-12121212-5555-4444-| x7
|-7777-10101010-3333-2222-|

|----------------0--|
|---------------0---|
|-17171717-----9----|
|-17171717----9-----|
|-15151515---7------|
|-------------------|
 
 

Видео