Запрещают песни Цоя, Агата Кристи, Наутилус Помпилиус, Зиверт
Отвечаем в отдельной теме

Green Day - Blood Sex And Booze (bass), аккорды

Прокрутка
Тональность
Шрифт
100
Intro
G|-----------------------------|
D|-2-2-2-2-2-2-2-2-2-2-2-2-2-2-|
A|-----------------------------|
E|-----------------------------|

Verse
G|---------------------------------------------------------------|
D|-2-2-2-2-2-2-2-2-2-2-2-2-2-2-----------------------------------|
A|-----------------------------3-3-3-3-3-3-3-3-3-3-3-3-3-3-2-3-4-|
E|---------------------------------------------------------------|

G|---------------------------------------------------------------|
D|-2-2-2-2-2-2-2-2-2-2-2-2-2-2-----------------------------2-2-2-|
A|-----------------------------3-3-3-3-3-3-3-3-3-3-3-3-3-3-------|
E|---------------------------------------------------------------|

Chorus
G|---------------------------------------------------------|
D|-----------------------------2-2-2-2-2-2-2-2-2-2-2-2-2-2-|
A|-4-4-4-4-4-4-4-4-4-4-4-4-4-4-----------------------------|
E|---------------------------------------------------------|

G|---------------------------------------------------------|
D|---------------------------------------------------------|
A|-4-4-4-4-4-4-4-4-4-4-4-4-4-4-----------------2-----------|
E|-----------------------------5-5-5-5-5-5-5-5-------------|

Post-Chorus
G|-----------------------------------------------------------|
D|-----------------------------------------------------------|
A|-7-7-7-7-7-7-7-7-5-5-5-5-5-5-5-5-4-4-4-4-4-4-4-4-----------|
E|-------------------------------------------------5-5-5-5-0-|

Bridge
G|---------|------|---------|------|--------|
D|-2-2-----|-play-|---------|-play-|-repeat-|
A|-----2-2-|--4x--|-3-3-----|--4x--|---2x---|
E|---------|------|-----3-3-|------|--------|

Intro
G|-----------------------------|
D|-2-2-2-2-2-2-2-2-2-2-2-2-2-2-|
A|-----------------------------|
E|-----------------------------|

Verse
G|---------------------------------------------------------------|
D|-2-2-2-2-2-2-2-2-2-2-2-2-2-2-----------------------------------|
A|-----------------------------3-3-3-3-3-3-3-3-3-3-3-3-3-3-2-3-4-|
E|---------------------------------------------------------------|

G|---------------------------------------------------------------|
D|-2-2-2-2-2-2-2-2-2-2-2-2-2-2-----------------------------2-2-2-|
A|-----------------------------3-3-3-3-3-3-3-3-3-3-3-3-3-3-------|
E|---------------------------------------------------------------|

Chorus
G|---------------------------------------------------------|
D|-----------------------------2-2-2-2-2-2-2-2-2-2-2-2-2-2-|
A|-4-4-4-4-4-4-4-4-4-4-4-4-4-4-----------------------------|
E|---------------------------------------------------------|

G|---------------------------------------------------------|
D|---------------------------------------------------------|
A|-4-4-4-4-4-4-4-4-4-4-4-4-4-4-----------------2-----------|
E|-----------------------------5-5-5-5-5-5-5-5-------------|

Post-Chorus
G|-----------------------------------------------------------|
D|-----------------------------------------------------------|
A|-7-7-7-7-7-7-7-7-5-5-5-5-5-5-5-5-4-4-4-4-4-4-4-4-----------|
E|-------------------------------------------------5-5-5-5-0-|

Bridge
G|---------| |---------| |--------|
D|-2-2-----| |---------| |-repeat-|
A|-----2-2-| 4x |-3-3-----| 4x |---2x---|
E|---------| |-----3-3-| |--------|

Outro
G|---------------------------------------------------------|
D|---------------------------------------------------------|
A|-7-7-7-7-7-7-7-7-5-5-5-5-5-5-5-5-4-4-4-4-4-4-4-3-3-3-3-2-|
E|---------------------------------------------------------|
 
 

Видео