Запрещают песни Цоя, Агата Кристи, Наутилус Помпилиус, Зиверт
Отвечаем в отдельной теме

Green Day - Walking Alone, аккорды

Прокрутка
Тональность
Шрифт
100
INTRO: G E }x2

Iintro solo on harmonica (play it on guitar if you want):
IG IE
E|------------------|
B|-8----------------|
G|---7-4-9b(10)r(9)-|
D|------------------|
A|------------------|
E|------------------|
IG IE
E|------------------|
B|-8----------------|
G|---7-4-9b(10)r(9)-|
D|------------------|
A|------------------|
E|------------------|

VERSE 1:
G E
Come together like a foot in a shoe
C D
Only this time I think I stuck my foot in my mouth
G E
Thinking out loud and acting in vain
C D
Knocking over anyone that stands in my way

CHORUS:
C D
Sometimes I need to apologize
C D
Sometimes I need to admit that I ain't right
C D
Sometimes I should just keep my mouth shut
G F E
Or only say hello
C D G
Sometimes I still feel I'm walking alone

G E }x2

Intro solo on harmonica - played again 
(play it on guitar if you want)
IG IE
E|------------------|
B|-8----------------|
G|---7-4-9b(10)r(9)-|
D|------------------|
A|------------------|
E|------------------|
IG IE
E|------------------|
B|-8----------------|
G|---7-4-9b(10)r(9)-|
D|------------------|
A|------------------|
E|------------------|

VERSE 2:
G E
Walk on eggshells on my old stomping ground
C D
Yet there's really no one left, that's hanging around
G E
Isn't that another familiar face
C D
Too drunk to figure out they're fading away

Chorus:
C D
Sometimes I need to apologize
C D
Sometimes I need to admit that I ain't right
C D
Sometimes I should just keep my mouth shut
G F E
Or only say hello
C D G
Sometimes I still feel I'm walking alone

Intro solo on harmonica - played again 
(play it on guitar if you want)
IG IE
E|------------------|
B|-8----------------|
G|---7-4-9b(10)r(9)-|
D|------------------|
A|------------------|
E|------------------|
IG IE
E|------------------|
B|-8----------------|
G|---7-4-9b(10)r(9)-|
D|------------------|
A|------------------|
E|------------------|

Guitar solo:
IG IE IC ID
E|----------------------------0-3------2-5-|
B|-8--------------------0-1------2-3-------|
G|---7-4-9b(10)r(9)------------------------|
D|-----------------------------------------|
A|-----------------------------------------|
E|-----------------------------------------|

C D
Sometimes I need to apologize
C D
Sometimes I need to admit that I ain't right
C D
Sometimes I should just keep my mouth shut
G F E
Or only say hello
C D G
Sometimes I still feel I'm walking alone

Intro solo (played as the outro) 
on harmonica - played again (play it on
guitar if you want)
IG IE
E|------------------|
B|-8----------------|
G|---7-4-9b(10)r(9)-|
D|------------------|
A|------------------|
E|------------------|
IG IE
E|------------------|
B|-8----------------|
G|---7-4-9b(10)r(9)-|
D|------------------|
A|------------------|
E|------------------|

IG IE
E|------------------|
B|-8----------------|
G|---7-4-9b(10)r(9)-|
D|------------------|
A|------------------|
E|------------------|
IG IE
E|------------------|
B|-8----------------|
G|---7-4-9b(10)r(9)-|
D|------------------|
A|------------------|
E|------------------|
 
 

Видео