Guano Apes - Big In Japan, аккорды

Прокрутка
Тональность
Шрифт
100
Intro solo of the guitar is:
e-----------------|--------------------|-----------------|---------------------|
B-----------------|--------------------|-----------------|---------------------|
G-----------------|--------------------|-----------------|---------------------|
D-4-------------4-|--4-----------6---4-|-4-------------4-|-6^8-8-8-8-8-8-8-8-8-|
A-----6---4---6---|------6---4---------|-----6---4---6---|---------------------|
E-----------------|--------------------|-----------------|---------------------|

-15-
-12-
-11-
-13-
--x-
--x-

D#7
Winter's cityside
B7                     
Crystal bits of snowflakes
C#7                            A#7
All around my head and in the wind
A#7
I had no illusions
B                        G#7
That I'd ever find a glimpse
                               A#7
Of summer's heatwaves in your eyes

D#7        B7            C#7
You did what you did to me
             A#7     B
Now it's history I see
              G#7                  A#7
Here's my comeback on the road again

D#7            B7              C#7
Things will happen while they can
       A#7                    B
I will wait here fore my man tonight
G#7                      A#7
It's easy when you're big in Japan

Припев:
D#7   B7
 You're big in Japan
C#7  A#7
You're big in Ja-pan
B  G#7  A#7
You're big in Japan
D#7
You're big in Japan
B7            C#7
Then I'll sleep by your side 
                A#7
All through the night
B
Big in Japan
G#7     A#7
It's easy to be...

D#7        B7            C#7
Neon on my skin, passing silhouettes
             A#7     B
Of strange illuminated mannequins
    G#7                  A#7
Shall I stay here at the zoo

D#7        B7            C#7
Or should I Go and change my point of view
             A#7    B
For other ugly scenes you did what you did to me
   G#7             A#7
Now it's history I see

D#7        B7            C#7
Things will happen while they can
             A#7     B
I will wait here for my man tonight
    G#7                  A#7
It's easy when you big in Japan

Припев:
D#7   B7
 You're big in Japan
C#7  A#7
You're big in Ja-pan
B  G#7  A#7
You're big in Japan
D#7
You're big in Japan
B7            C#7
Then I'll sleep by your side 
                A#7
All through the night
B
Big in Japan
G#7     A#7
It's easy to be...

Комментарий автора:

D#7  B7 C#7 A#7  B  G#7 A#7 A#7
-x- -x- -x- -x- -x- -x- -x- -x-
-x- -x- -x- -x- -x- -x- -x- -x-
-8- -x- -6- -x- -4- -x- -x- -x-
-8- -9- -6- -8- -4- -6- -8- -8-
-6- -9- -4- -8- -2- -6- -8- -8-
-6- -7- -4- -6- -2- -4- -6- -6-
 
 

Видео