Guns N Roses - Don't Cry, аккорды

Прокрутка
Тональность
Шрифт
100
Main Riff: 
  Am        Dm        G
E|-------0-------------1---------------3-----------------------|
B|---------1---------3---3---------------3---------------------|
G|-----2-----2-----2-------2---------0-----0-------0-----0-----|
D|---2---------0-0-----------------0-------------0-----0-------|
A|-0-------------------------0---2-----------0-3-----2-----3-2-|
E|-----------------------------3-------------------------------|

Chorus: F G Am

Distorted chords in the middle of the song are:
C5 G/B A5 G5 F5 G5 A5
_____________________
Main Riff:
E|----------------------------------------------|
B|----------------------------------------------|
G|----------------------------------------------|
D|---2--2------2--2-----------------------------|
A|---2--2------2--2----------------2p--0--------|
E|---0--0---0----------0---3p--0----------3p--0-|

Palm mute the 6th string slightly.

Solo:
-----------------------------------------------------------|
----------------------------------------------H-P-----H----|
---------[[1]]----[[1]]---H-P----4~~~~~-/-7-5-7-5--4-5~~~~-|
2-/-3~~~-3---3~~~-3---3-2-3-2------------------------------|
------------------------------2----------------------------|
-----------------------------------------------------------|

------------------H-P-----H-----------------------H--P---------H-|
--8--6-5-6--/-8-6-8-6--5-6----/-12--/-15~~~-13--15-13----12-13---|
5---------------------------4------------------------------------|
-----------------------------------------------------------------|
-----------------------------------------------------------------|
-----------------------------------------------------------------|
           H[[1]]        Н P
---15--13-13-12-13----13-12~~~-12-13-1210--H--|
13-----------------------------------------12-|
----------------------------------------------|
----------------------------------------------|
----------------------------------------------|
----------------------------------------------|

                                        [[1/2]]
---H-P-----------------------------------------[[1]]------19------19~~~-|
8-12-8--H--P--------H-P-----------------------18----18-17---------------|
-------11-10-----9-10-9---1210---/14~~~--/17----------------------------|
------------------------------------------------------------------------|
------------------------------------------------------------------------|
------------------------------------------------------------------------|
 [[1]]
-20---20~~------------20-19-20------------[[1/2]]-----19-18-19-|
------------18-17-18------------18-17-18-17-----17~~-----------|
---------------------------------------------------------------|
---------------------------------------------------------------|
---------------------------------------------------------------|
---------------------------------------------------------------|
           rake
---19----19--------x--------------------------------------------|
17----17----17------x--------[[1]]------------------------------|
---------------------x-9-12-10----10(10)(10)~~~--12--10--12--10-|
----------------------------------------------------------------|
----------------------------------------------------------------|
----------------------------------------------------------------|

------------------------------------------------------------------------|
------------------------------------------------------------------------|
X-x-10 9-(9)-(9)~~~--4-(4)-(4)-(4)~~~-----------------------------------|
---------------------------------------6-(6)-(6)~~~-2-(2)-(2)~~~--2-/-3-|
------------------------------------------------------------------------|
------------------------------------------------------------------------|

--------------------------------------------7~~~~-|
----------------3-/-6~~~--5-6-5-6-5-6-------------|
-------2--3--5------------------------6--4--------|
-3--5---------------------------------------------|
--------------------------------------------------|
--------------------------------------------------|

Комментарий автора:

Notes:
[[x]] - x step bend
~~~  - vibrato
H   - Hammer on
P   - Pull off
/   - Slide
(x)  - Strike note while last one still ringing
 
 

Видео