Guns N Roses - Paradise City, аккорды

Прокрутка
Тональность
Шрифт
100
Intro:
    G                    C                    F
E|-------3-----3---------3----------------3------3------3-------------|
B|--------------------------3--------3----------------------3-------3-|
G|----------0---------0---------0----0--------0------0----------0---2-|
D|----0------------------------------2------------------------------3-|
A|-----------------------------------3--------------------------------|
E|----3------------3--------------------------------------------------|
 
            C           G
E|----3-------3--------3------3---------3------3-------3------3-|
B|--------3-------1--------3-------3--------3-------------------|
G|----------------0----------------0-----------------------0----|
D|----------------2----------------2----------------0-----------|
A|----------------3----------------3----------------------------|
E|--------------------------------------------------3-----------|

The end of first part:
E|-3---1---2---3---1---2---3---1---3---1---------|
B|-----------------------------------------3---1-|
G|-----------------------------------------------|
D|-----------------------------------------------|
A|-----------------------------------------------|
E|-----------------------------------------------|
 
 

Видео