Guns N Roses - Chinese democracy, аккорды

Прокрутка
Тональность
Шрифт
100
INTRO: D# F# G# A 
       D# F# G# G#    
    
 D#  F#       G#       A                   
 It don’t really matter                   
 D#      F#        G#  G#               
 You’ll find out for yourself                                                  
 D#  F#     G#           A                             
 No it don’t really matter                                                  
 D#      F#         G#                  
 You’re gonna leave this thing to                                            
 G#                             
 Somebody else                      
 
Solo:  
E|-18-16-15-16~~---16-16-15--15-----------------18-16-15-15-16-15-------| 
B|-------------------------15--15--17-17-15-----------------------14-14-| 
G|----------------------------------------------------------------------| 
D|----------------------------------------------------------------------| 
A|----------------------------------------------------------------------| 
E|----------------------------------------------------------------------| 
 
E|-14/15-17b-15-----21------21--21-22b-| 
B|--------------------18--18--18-------| 
G|----------------------18-------------| 
D|-------------------------------------| 
A|-------------------------------------| 
E|-------------------------------------| 
 
 

Видео