Guns N Roses - Paradise City, аккорды

Прокрутка
Тональность
Шрифт
100
Tune down 1/2 step
  
Intro 1:
Gb|---------------------------------
Db|--------------------3------------
Ab|-----------3-------------3-------
Eb|--3---------------------------3~-
 
Intro 2:
Gb|------------------------------------------------
Db|--------------------3---------------------------
Ab|-----------3-------------3-------10-10-10-6p5p4-
Eb|--3---------------------------3-----------------
 
Intro 3:
Gb|----------------------------------
Db|--------------------3-------------
Ab|-----------3-------------3----10~-
Eb|--3-------------------------------
 
Verse 1:
Gb|----------------------
Db|----------------------
Ab|------------------3p1-
Eb|--3-1-2-3-1-2-3-1-----
 
Verse 2:
Gb|-----------------------
Db|-----------------------
Ab|------------------3--1-
Eb|--3-1-2-3-1-2-3-1------
 
Bridge:
Gb|------------------------------------------
Db|------------------------------------------
Ab|------------------3~---------6p5p4--------
Eb|--3-1-2-3-1-2-3-1-----------------6p5p4-3-

Chorus 1:
Gb|-----------------------------------------------------
Db|-----------------------3-3---------------------------
Ab|------------3-3p0-3-3-------3-3-------10-10-10-6p5p4-
Eb|-3-3p0-3-3-----------------------3-3-----------------
 
Chorus 2:
Gb|-------------------------------------
Db|-----------------------3-3-----------
Ab|------------3-3p0-3-3-------3-3--10~-
Eb|-3-3p0-3-3---------------------------
 
Solo:
Gb|----------------------
Db|----------------------
Ab|------------------5p3-
Eb|--5-3-4-5-3-4-5-3-----
 
"So far away..." Section 1:
Gb|----------------------------------------
Db|----------------------------------------
Ab|----------------------------------------
Eb|--5-5-5-5--5-5-5-5--3-3-3-3--3-3-3-3--4-
 
"So far away..." Section 2:
Gb|-------------------------------
Db|-------------------------------
Ab|-----------------------3-----1-
Eb|--5-5-5-5--5-5-5-5-------------
 
Outro:
Gb|-----------------------------------------------------------------
Db|---------------------------------3-3-3-3-------------------------
Ab|-----------------3-3-3-3-3-3-3-3---------3-3-3-3-----------------
Eb|-3-3-3-3-3-3-3-3---------------------------------3-3-3-3-3-3-3-3-
      
Gb|------------------------------------------------------------------------
Db|---------------------------------3-3-3-3------------9-10-11-----9-10-11-
Ab|-----------------3-3-3-3-3-3-3-3---------3-3-3-3/10----------10---------
Eb|-3-3-3-3-3-3-3-3--------------------------------------------------------
 
Gb|-----------------------------------------------------------
Db|---------------------------------3-3-3-3-------------------
Ab|-----------------3-3-3-3-3-3-3-3---------3-3-3-3/10-10/17~-
Eb|-3-3-3-3-3-3-3-3-------------------------------------------
 
Gb|-----------------------------------------------------------------
Db|---------------------------------3-3-3-3-------------------------
Ab|-----------------3-3-3-3-3-3-3-3---------3-3-3-3---10~-------10~-
Eb|-3-3-3-3-3-3-3-3-----------------------------------------3-3-----
 
 

Видео