Guns N Roses - Sweet Child Mine (btab), аккорды

Прокрутка
Тональность
Шрифт
100
Intro: 
G:-------------4-----------|---------------------|-----|-----|
D:---4---4-5-7----7-5-4----|---5--3-2----3--2----|-----|-5---|
A:-5---5-----------------5-|-3---------3-------3-|-----|-----|
E:-------------------------|---------------------|-3---|-----|
 
G:------------------------------|
D:--5-4---5--4-----5-4----5--4--|
A:------5-------5-------5-------|
E:------------------------------|
 
Verse:
G:-------|--–-|----–|-----|
D:---5---|-3--|-----|-5---|
A:-------|----|-3---|-----|
E:-------|----|-----|-----|
 
G:----------------|------------------|-----------------|-------------|
D:-------5-0-5-0--|--------3-2-------|-----------------|-------5--4--|
A:--5-------------|---3---------3-2--|------2-3-4-5----|-5-----------|
E:----------------|------------------|-3---------------|-------------|
 
Chorus: 
G:----------------|---------|--------------|--------|
D:----------------|---------|--------------|--------|
A:----------------|-5-5-----|--------------|-5-5----|
E:-----5-5--3-3---|---------|---5-5--3-3---|--------|
 
 

Видео