Guns N Roses - Don't Cry, аккорды

Прокрутка
Тональность
Шрифт
100
E-------------------------------------------------------------------------
B------------------------------------5-8---------5-8-5--------------------
G-----------------------7H57---7H57--------7H57--------7--5---------------
D------------------7*---------------------------------------7--5----------
A-----------------------------------------------------------------7--5--3-
E-------------------------------------------------------------------------

E-----------------------------------------------------------------------
B------------------------------------------15-13------------------------
G---5---7----9----10------12---14---16-----------14-12------------------
D-------------------------------------------------------14-12-----------
A---3---5----7-----8------10---12---14-------------------------15-14----
E--------------------------------------------------------------------15-

E----------------------------------------------------------------------------
B------17--20--17-------------17--20--17-------------------------------------
G---19-------------19-17--19-------------20--19--18--------20--19--18--19----
D---------------------------------------------------19-20-----------------20-
A----------------------------------------------------------------------------
E----------------------------------------------------------------------------

E-----------------------           E|-----
B---15^-----------------           B|-----
G--------12---14--------           G|-14*-
D-----------------14--12           D|-14*-
A-----------------------           A|-----
E-----------------------           E|-----

Комментарий автора:

* - Hold None         
H - Hammer Down    
^ - Bend Up and Down x3
 
 

Видео