Guns N Roses - Knockin' On Heaven's Door (solo), аккорды

Прокрутка
Тональность
Шрифт
100
1st Solo:
e----------------10--------------------------12---10--8p7--8--10--8p7-8p7---
B--8--10^^p8-h10----10^^-p8-8-----8-----------------------------------------
G---------------------------------------9---------------------------------9-
D---------------------------------------------------------------------------
A---------------------------------------------------------------------------
E---------------------------------------------------------------------------

-------12-15-12---12-15-19-17-19-19-15--22-20p19-20p19-22-20p19-20-20--
----12----------12--------------------------------------------------17-
-----------------------------------------------------------------------
-----------------------------------------------------------------------
-----------------------------------------------------------------------
-----------------------------------------------------------------------

-----------------------------
----15^^15^^-----------------
-------------14^^14^^--12-12-
-----------------------------
-----------------------------
-----------------------------

2nd Solo:
----------------------------------------------------------------12----
-19^^-19-19--^^--19--17--19p17-17---20p17---20p17------------------12-
--------------------------------------------------19p17--19p16--------
----------------------------------------------------------------------
----------------------------------------------------------------------
----------------------------------------------------------------------

----------------15-----------------------15-----19---17p15--17p15-
------------------15-----------------------15---------------------
----16p14/12-14------16/12--12---12-/-16--------------------------
------------------------------------------------------------------
------------------------------------------------------------------
------------------------------------------------------------------

----20p19-20/22---20p19-20/22---20p19--20-22^^-22------------22---------
--------------------------------------------------20-22^^----22^^-22p20-
------------------------------------------------------------------------
------------------------------------------------------------------------
------------------------------------------------------------------------
------------------------------------------------------------------------

----------------------------------------------------------------------
--22^^-22p20---22^^-22p20---20--19-19h20p19/17-19p17-17--20-p17-20p17-
----------------------------------------------------------------------
----------------------------------------------------------------------
----------------------------------------------------------------------
----------------------------------------------------------------------

-----------------------------------------------
-----------------------------------------------
----19p17--19p16-------------------------------
------------------17--16-16^^/14---12--9^^-----
--------------------------------------------10-
-----------------------------------------------

Комментарий автора:

E = D#
A = G#
D = C#
g = f#
b = a#
e = d#

Note:
H - hammer-on
/ - slide
P - pull-off
^^ - full bend
 
 

Видео