Guns N Roses - November Rain (outro), аккорды

Прокрутка
Тональность
Шрифт
100
(7:00)
   Pm------------------------------------------------------------|
e----------------------------------------------------------------|
b----------------------------------------------------------------|
g---9--x-x-x----x-x-x----x-x---9--x-x-x---9----14--14--14--14----|
d---9--x-x-x----x-x-x----x-x---9--x-x-x---9----14--14--14--14----|
a---7--x-x-x----x-x-x----x-x---7--x-x-x---7----------------------|
e---7------------------------------------------------------------|

e-17b(19)vvvvvvvvvb18--19vvvvvb(21)--19-18--19--14----14-15vvvvv-|
b--------------------------------------------------15------------|
g----------------------------------------------------------------|
d----------------------------------------------------------------|
a----------------------------------------------------------------|
e----------------------------------------------------------------|

e--14p13h14vvvvv---12--14--------------------12----14--14p12h14--|
b--------------------------15p14p12-12-14-15----15---------------|
g----------------------------------------------------------------|
d----------------------------------------------------------------|
a----------------------------------------------------------------|
e----------------------------------------------------------------|

e-------------------12--------------------------------------------|
b--12--14--15-14-12----15-14-12-14--15b(17)--15b--15b--15b-r15vvv-|
g-----------------------------------------------------------------|
d-----------------------------------------------------------------|
a-----------------------------------------------------------------|
e-----------------------------------------------------------------|
 
 

Видео