Guns N Roses - Paradise City (outro), аккорды

Прокрутка
Тональность
Шрифт
100
Fast but easy:
E-----------------------------------------------------------------------------------|
B-----------------------------------------------------------------------------------|
G-------------------------3^---5-3-4-5-3-4-5-3-5-3-5-3^---------------5---3-4-5-3-5-|
D---5-3-4-5-3-4-5-3-5-3-5---------------------------------3-1-2-3-0-----------------|
A-----------------------------------------------------------------------------------|
E-----------------------------------------------------------------------------------|

E-------------------------------------|
B-------------------------------------|
G---(3)------------3---5-3-----3^-----|
D---------5-3-5vv----5-----5-3----5-3-|
A-------------------------------------|
E-------------------------------------|
 
 

Видео