Guns N Roses - Ain`t It Fun (tab), аккорды

Прокрутка
Тональность
Шрифт
100
 Gilby parts 
 -------------------------------------------------------| 
 -------------------------------------------------------| 
 |-----4-------4-------7-------2-------4-------4-------4-------4----| 
 |---4---4---4-------7---7---2---2---5---5---5---5---4---4---4---4--| 
 |-2-------2-----4-5-------0-----------------------2-------2--------| 
 ----------------------3-------3------------------------| 
 
 
 
 Slash parts 
 ---------------------------------------------5---7-5-7-| 
 ------------------------------------5-/-7--------------| 
 ----------------2---4-----------4---7---7--------------| 
 ----------2-4------------------------------------------| 
 |-2----------2-4-5-------------------------------------------------| 
 -------------------------------------------------------| 
 
 
 
                                                                 and so... 
 --10-p12-b14---14-r12-10-b12-r10-----10----------------| 
 |--------12-----------------------------------------12-10-b12------| 
 -------------------------------------------------------| 
 -------------------------------------------------------| 
 -------------------------------------------------------| 
 -------------------------------------------------------|