Хадн Дадн - Храмомама, аккорды

Прокрутка
Тональность
Шрифт
100
Вступление играется перебором 
E B G#m G#m на 12м ладу

E               B                     G#m    F#
Проезжаю мимо храма, где крестили мою маму
Проезжаю мимо школы, где училась раньше ты
C#                Fm             C#
Что-то друга не видать, еще подождем
(C#)             G#m             E
И вагончик Роспечати стерло дождем
(E)             B                      F#    Fm
От меня к позавчера – пропасть, черная дыра

              E              B
Еду в маршрутке, еду в маршрутке
             G#m 
Я еду в маршрутке, еду в маршрутке
Еду в маршрутке, еду в маршрутке
Я еду в маршрутке, еду в маршрутке

E               B                     G#m    F#
Проезжаю мимо храма, где крестили мою маму
Проезжаю мимо школы, где училась раньше ты
C#                G#                    D#
Там налево будет дом, и на лестнице балкон
                  A#m
Где курили мы тайком
C#                    G#                   D#
Мы не встретились сейчас и не встретимся потом

C#                Fm             C#
Что-то друга не видать, еще подождем
(C#)             G#m             E
И вагончик Роспечати стерло дождем
(E)             B                      F#    Fm
От меня к позавчера – пропасть, черная дыра

Проигрыш:
E B G#m G#m (F#) x4
Табы проигрыша:
e--------------------------------------|
b----12-12-12--------------------------|
g----------------13-----11-------------| x4
d-----------------------------14-13----|

    (11-12-11, 11-14-11)
e----11-11-11--------------------------|
b-----------------------12----11-------|
g----------------13--------------13----| x3

e----11----11----11----11-----12----12----12----12----|
b-------12----12----12-----12----12----12----12----12-|

Соло: E B G#m G#m (F#) x8
e----------11--14--19-----18--11-------|
b--12--14------------------------------|

e----------11--14--21------------------|
b--12--14------------------------------|
 
 
Свернуть Распечатать

Видео