Harper Ben - Burn One Down, аккорды

Прокрутка
Тональность
Шрифт
100
G (riff) 
e|----3-3------3-3-------------------3-3-----3-3------------------| 
B|----3-3------3-3-------------------3-3-----3-3------------------| 
G|----0-0------0-0-------------------0-0-----0-0------------------| 
D|----0-0------0-0-------------------0-0-----0-0------------------| 
A|-------------------0-2---3-2-0-------------------0-2---3-2-0----| 
E|3-------3-3------3-----3---------3-----3-3-----3-----3----------| 
 
e|----3-3-----3-3---------------------3-3-----3-3-----------------| 
B|----3-3-----3-3---------------------3-3-----3-3-----------------| 
G|----0-0-----0-0---------------------0-0-----0-0-----------------| 
D|----0-0-----0-0---------------------0-0-----0-0-----------------| 
A|------------------0-2---3-2-0---------------------0-2---3--2--0-| 
E|3-------3-3-----3-----3---------3-------3-3-----3-----3---------| 
 G
Let us burn one from end to end 
 Em7 
And pass it over 
   Cadd9
To me my friend 
 G
Burn it long, well burn it slow 
 Em7           Cadd9
To light me up before I go 
 
 G
If you dont like my fire 
 Em7 
Then dont come around 
       Em       D        C
Cause Im gonna burn one down 
     Em       D        G (Riff)
Yes Im gonna burn one down 
 
My choice is what I choose to do 
And if Im causing no harm 
It shouldnt bother you 
Your choice is who you choose to be 
And if your causin no harm 
Then youre alright with me 
 
If you dont like my fire 
Then dont come around 
Cause Im gonna burn one down 
Yes Im gonna burn one down 
 
Herb the gift from the earth 
And whats from the earth 
Is of the greatest worth 
So before you knock it try it first 
Youll see its a blessing 
And not a curse 
 
If you dont like my fire 
Then dont come around 
Cause Im gonna burn one down 
Yes Im gonna burn one down
 
 

Видео