Harper Ben - Amen Omen, аккорды

Прокрутка
Тональность
Шрифт
100
----------------------------------------------------------------------------
			     Amen Omen - Ben Harper
----------------------------------------------------------------------------

Transcribed by Soozn Myhill
Email: Soozn@mail2medieval.com

Tuning:EADGBe

intro:

  Am		             F

e||--------------------------|-(1)----(0)-h-(1)--(0)-h-(1)---(1)--|
B||--1-1---1---1--1---1---1--|--1--1---1-----1----1-----------1---|
G||--2-2---2---2--2---2---2--|--2--2---2-----2----2-----------2---|
D||--2-2---0-h-2--0-h-2---2--|--3--3---2--h--3----2--h--3-----3---|
A||--0-0------------------0--|-(3)-3--------------------------3---|
E||--------------------------|-(1)----(0)-h-(1)--(0)-h-(1)---(1)--|


  C			G

e|-(0)----------------|--3------------------||
B|--1-----------------|--0------------------||
G|--0-----------------|--0------------------||
D|--2----0-2-3-2-0-2--|--0------------------||
A|--3--3--------------|--2----0-2-3-2-0-2---||
E|--------------------|--3--3---------------||

Verse 1:

Repeat intro chord progression X 4.


Chorus:

||:   F   C   |   G   Am  :||  X 2

      | | | |     | | | |    (strum line)



		         6th fret
||    F   C   |   G      A#       F   |   G#     A#  ||

      | | | |	  | |    |||  |   | |     ||| |  |


Verse 2:

Repeat intro chord progression X 4.


Chorus X 1


Solo:

||  Am   F   |  C   G   |  F   C   G   Am   |  F   C   G   ||


Verse 3:

Repeat intro chord progression X 4.
     

ChorusOutro:

repeat chorus & fade out.



** h = hammer-on


============================================================================
				**Please Note**
This file is only my interpretation of the song. You may only use this file for private
study, scholarship, or research. If you have any comments, queries or suggestions please
email me:)

Soozn@mail2medieval.com
 
 

Видео