Harper Ben - Burn One Down, аккорды

Прокрутка
Тональность
Шрифт
100
This tab is tuned as in the album version. 
you don't have to tune your strings one step down as in the old tab. 
the only matter is that you can't play the D in bar 2 of the verse. 
so just play a ghost note instead !



Riff 1:
G|---------------|---------------|
D|-3-3---3-------|---------------| 4x
A|---------3-----|---------1-0---|
E|-------------1-|-------------3-|
   |   |   |   |   |   |   |   |


Verse:
G|---------------|---------------|---------------|---------------|
D|-3-3---3-------|---------------|---------------|---------------|
A|---------3-----|---------------|-5-5---5-0---1-|---------1-0---|
E|-------------1-|-------X-1---0-|---------------|-------1-----3-|
   |   |   |   |   |   |   |   |   |   |   |   |   |   |   |   |


Chorus:
G|---------------|---------------|---------------|---------------|
D|-3-3---3-------|---------------|---------------|---------------|
A|---------3-----|-5-5-5---5-----|-5-5---5-3-3---0-1-0-----------|
E|-------------1-|-------5-----5-|---------------|-----3---1-----|
   |   |   |   |   |   |   |   |   |   |   |   |   |   |   |   |

G|---------------|---------------|
D|---------------|---------------|
A|-5-5---5-3-3---3-1-------------|
E|---------------|---------------|
   |   |   |   |   |   |   |   |
 
 

Видео