Harper Ben - Give A Man A Home, аккорды

Прокрутка
Тональность
Шрифт
100
Artist: Ben Harper
Song: Give A Man A Home
Album: Fight For Your Mind
Tuning: CADGBe (low E down two steps)
Tabbed By: Tim Lavenz
E-mail Address: zneval2005@yahoo.com

Intro:
e|--------------------------------------------------|
B|--------------------------------------------------|
G|--------------------------------------------------|  
D|--------------------------------------------------|
A|------3-------------------3-------------------3---|
C|--7-------0-----------7-------0-----------7-------|

Verse:
|--------------------------------------------------------------------||
|--------------------------------------------------------------------||
|--------------------------------------------------------------------||  
|--------------------------------------------------------------------||
|----3--3-3--3-------7--7-7--7s------5--5--5----4------3---3----03---||
|0-------0-0-----9-------9-9-----7-------7--7-6--6-5----------77-----||

Chorus:
|--------------------------------------------------------------------||
|--------------------------------------------------------------------||
|--------------------------------------------------------------------||  
|--------------------------------------------------------------------||
|----3--3-3--3-------5--5-5--5s------7--7--7----5------3---3----03---||
|0-------0-0-----7-------7-7-----9-------9--9-7--7-5----------77-----||

Outro:
|--------------------------------------------------------------------||
|--------------------------------------------------------------------||
|--------------------------------------------------------------------||  
|--------------------------------------------------------------------||
|----3--3-3--3-------5--5-5--5s------7--7--7----5-----33-------------||
|0-------0-0-----7-------7-7-----9-------9--9-7--7-5-----------------||

Order:
Intro
Verse x2
Chorus
Verse x2
Chorus x2
Verse x2
Chorus x2
Outro
 
 

Видео