Harper Ben - Please Me Like You Want To, аккорды

Прокрутка
Тональность
Шрифт
100
PLEASE ME LIKE YOU WANT TO by Ben Harper
Drop D tuning.

Intro:
e--------------------------------------------------|
b--------------------------------------------------|(x2)
g--------------------------------------------------|
d-----4h5p4-------2h3p2----------------4h5p4-------|
a-----5-----5--3--3-----3---222-33-5---5-----5-----|
D--0----------------------5----------0-------------|

Verses:
e--------------------------------------------|
b--------------------------------------------|
g--------------------------------------------|
d-----4h5p4----------------------------------|
a-----5-----5--3---------3p2-----2-3p2-------|
E--0-------------0h2-5-5-----5-5-------5-----|

Chorus:
e--------------------------------------------------|
b--------------------------------------------------|
g--------------------------------------------------|
d-----4h5p4-------2h3p2----------------4h5p4-------|
a-----5-----5--3--3-----3---222-33-5---5-----5-----|
D--0----------------------5----------0-------------|

Transcribed for your playing pleasure by Frizzle
 
 

Видео