Harper Ben - Steal My Kisses, аккорды

Прокрутка
Тональность
Шрифт
100
Song: Steal my kisses
Band: Ben Harper
Tuning: E A D G B E (in this version (normally he is a tone behind))
Tabbed: Daniel (double_dcup_daniel@hotmail.com)
  I'll admit this is a pretty short tab but he doesnt do much the bass
is whats best this is just like rythym. Anyway its cool.

E[-----------------------------------------]
B[-6-6-6-x-6-6-66-66----8-8-8-x-8-8-88-88--]
G[-5-5-5-x-5-5-55-55----7-7-7-x-7-7-77-77--]
D[-3-3-3-x-3-3-33-33----8-8-8-x-8-8-88-88--]
A[-----------------------------------------]
E[-----------------------------------------]

E[----------------------------------------]
B[-10-10-10-x-10-10-1010-108--6-6-6-x-6---]
G[--9--9--9-x--9--9--9-9--97--5-5-5-x-5---]
D[-10-10-10-x-10-10-1010-108--3-3-3-x-3---]
A[----------------------------------------]
E[----------------------------------------]

Easy but sounds cool, make it all funky and dont make
that scrape to prominant its just a little rythym bit.
 
 

Видео