HIM - In Joy And Sorrow, аккорды

Прокрутка
Тональность
Шрифт
100
E----------------------------------------------0----------------------------------|
B-----------------3-------------------------------3------0----------------1-------|
G---------0-----------0-------0---------0------------0-------------2---------2----|
D-----2-------2-----------2----------0-----0--------------------2-----2---------2-|
A-3----------------------------------------------------------0--------------------|
E---------------------------------3-----------------------------------------------|

E-------------------------------------|
B------0----------------1-------------|
G-2-------2---------2------2----------| x2
D--------------2----------------------|
A------------------------------0-2-3--|
E-------------------------------------|

E-----------------------------------------0--------------------------1-----------|
B--------------3-----------------------------3-----3----------3--------3-------0-|
G-------0---------0------0--------0------------0----------2------2--------2------|
D----2-----2---------2--------0-------0---------------0--------------------------|
A-3------------------------------------------------------------------------------|
E---------------------------3----------------------------------------------------|

E------------------------------------------------------------------------------0----|
B-------------------1--------------------------------3----------------------------3-|
G-----------2------------2-------------------0-----------0------0-------0-----------|
D------2--------2-----------------------2--------2----------2-------0------0--------|
A-0----------------------------0-2-3------------------------------------------------|
E-------------------------------------------------------------------3---------------|

Chorus: Am C G      
 
 

Видео