HIM - The Funeral Of Hearts, аккорды

Прокрутка
Тональность
Шрифт
100
Intro: Acoustic Guitar
e|-2---4---2---0---0-------------|
B|-2---5---3---2---0-------------|
G|-2---6---2---2---1-------------|
D|-4---6---0---2---2---repeat-2x-|
A|-4---4-------0---2-------------|
E|-2---4-----------0-------------|

Chorus: Electric
e|-------------------------------------------------------|
B|-------------------------------------------------------|
G|----------------------7--------------------------------|
D|-4------2------7------7-4x---7------6------------------|
A|-4-8x---2-8x---7-8x---5------7-2x---6-2x-----repeat-2x-|
E|-2------0------5-------------5------4------------------

Little Bit After the Chorus:
e|------------|
B|------------|
G|------------|
D|-4-------12-|
A|-4-slide-12-|
E|-2-------10-|

Verse: Palm Mute
e|---------------------------|--------------------------------------------|
B|---------------------------|--------------------------------------------|
G|---------------2------4----|----------------2------4--------------------|
D|-4------2------2-8x---4-8x-|--4------2------2-8x---4-4x-----------2---4-|
A|-4-8x---2-8x---0------2----|--4-8x---2-8x---0------2------2---4---------|
E|-2------0------------------|--2------0----------------------------------|

e|--------------------------------------------------------------------------|
B|--------------------------------------------------------------------------|
G|---------------2------4---------------------------------------------------|
D|-4------2------2-8x---4-8x---4------2------7--7---------------------------|
A|-4-8x---2-8x---0------2------4-8x---2-8x---7--7-|scratch pick along string|
E|-2------0--------------------2------0------5--5---------------------------|

Little Bit After The Verse:
e|-------------|
B|-------------|
G|-------------|
D|-9-9---11-11-|
A|-9-9---11-11-|
E|-7-7---09-09-|
  
2nd Chorus: Electric
e|-----------------------------------------------------|
B|-----------------------------------------------------|
G|----------------------7------------------------------|
D|-4------2------7------7-4x---7------6----------------|
A|-4-8x---2-8x---7-8x---5------7-2x---6-2x---repeat-4x-|
E|-2------0------5-------------5------4----------------|

2nd Little Bit After the Chorus:
e|------------|
B|------------|
G|------------|
D|-4-------12-|
A|-4-slide-12-|
E|-2-------10-|

2nd Verse: Palm Mute
e|---------------------------|--------------------------------------------|
B|---------------------------|--------------------------------------------|
G|---------------2------4----|----------------2------4--------------------|
D|-4------2------2-8x---4-8x-|--4------2------2-8x---4-4x-----------2---4-|
A|-4-8x---2-8x---0------2----|--4-8x---2-8x---0------2------2---4---------|
E|-2------0------------------|--2------0----------------------------------|

e|--------------------------------------------------------------------------|
B|--------------------------------------------------------------------------|
G|---------------2------4---------------------------------------------------|
D|-4------2------2-8x---4-8x---4------2------7--7---------------------------|
A|-4-8x---2-8x---0------2------4-8x---2-8x---7--7--scratch pick along string|
E|-2------0--------------------2------0------5--5---------------------------|

2nd Little Bit After The Verse:
e|-------------|
B|-------------|
G|-------------|
D|-9-9---11-11-|
A|-9-9---11-11-|
E|-7-7---09-09-|

Solo:
e|--------------------------------------------------|-----------------------|
B|--------------------------------------------------|-----------------------|
G|--------------------------------------------------|-----------------------|
D|7-6-4---4-6-6-7---9-11-7-6-7---4-6-6-7------------|-----------------------|
A|------7---------7------------7----------7-slide-4-|-7-6-7---4-6-6-7---6-11|
E|--------------------------------------------------|-------7---------7-----|

e|---------------------------|
B|---------------------------|
G|---------------------------|
D|-7-6-7---4-6-6-7-----------|
A|-------7---------7-slide-4-|
E|---------------------------|

The Bit After The Solo:
e|-----------------------------------------------------------------------|
B|-----------------------------------------------------------------------|
G|-----------------------------------------------------------------------|
D|-----------------------------------------------------------------------|
A|------------------------------------------------------|scratch string|-|
E|-2--4--5--7--8--9--8--7--5--7--8--9--7--5------------------------------|

e|--------------------------------------------------------------------------|
B|--------------------------------------------------------------------------|
G|--------------------------------------------------------------------------|
D|-9-9--11-11--4------------------------------------------------------------|
A|-9-9--11-11--4-12x-palm mute, gradually take your hand off to get louder--|
E|-7-7--09-09--2------------------------------------------------------------|

End Chorus:
e|---------------------------------------------------------------------|
B|---------------------------------------------------------------------|
G|--------9-----------------------------------------9------------------|
D|-9------9-4x---9------8------6------4------9------9-4x---9------8----|
A|-9-8x---7------9-2x---8-2x---6-8x---4-8x---9-8x---7------9-2x---8-2x-|
E|-7-------------7------6------4------2------7-------------7------6----|

e|--------------------------------------------------------------------------|
B|--------------------------------------------------------------------------|
G|----------------------9-----------------------------------------9---------|
D|-6------4------9------9-4x---9------8------6------4------9------9-4x--9---|
A|-6-8x---4-8x---9-8x---7------9-2x---8-2x---6-8x---4-8x---9-8x---7-----9-2x|
E|-4------2------7-------------7------6------4------2------7------------7---|

Acoustic Outro:
e|------|--4---6---0---2---2-----|
B|------|--4---7---0---4---2-----|
G|------|--4---8---1---4---3-----|
D|-8----|--6---8---2---4---4--2x-|
A|-8-2x-|--6---6---2---2---4-----|
E|-6----|--4---6---0---2---2-----|
 
 

Видео