HIM - When Love And Death Embrace (btab), аккорды

Прокрутка
Тональность
Шрифт
100
Begins with the Chorus: 
D|----------------|----------------|----------------|----------------|
A|----------------|2-2-2-2-2-2-2-2-|3-3-3-3-3-3-3-3-|----------------|
E|0-0-0-0-0-0-0-0-|----------------|----------------|3-3-3-3-2-2-2-2-| x2 

D|----------------|----------------| 
A|3->let ring till the here > > > >| 
E|----------------|----------------|

Verse: 
D|----------------|----------------|----------------|----------------|
A|----------------|----------------|----------------|----------------|
E|3-3-3-3-3-3-3-3-|0-0-0-0-0-0-0-0-|3-3-3-3-3-3-3-3-|0-0-0-0-0-0-0-0-|

D|----------------|----------------|----------------|----------------|
A|----------------|----------------|----------------|----------------|
E|3-3-3-3-3-3-3-3-|0-0-0-0-0-0-0-0-|3-3-3-3-3-3-3-3-|0-0-0-0-0-0-0-0-|

D|----------------|----------------|----------------|----------------|
A|----------------|----------------|----------------|----------------|
E|3-3-3-3-3-3-3-3-|0-0-0-0-0-0-0-0-|3-3-3-3-3-3-3-3-|0-0-0-0-0-0-0-0-|

D|----------------|----------------|----------------|----------------| 
A|----------------|----------------|5->let ring till the here > > > >|
E|3-3-3-3-3-3-3-3-|0-0-0-0-0-0-0-0-|----------------|----------------|

Chorus again: 
D|----------------|----------------|----------------|----------------|
A|----------------|2-2-2-2-2-2-2-2-|3-3-3-3-3-3-3-3-|----------------|
E|0-0-0-0-0-0-0-0-|----------------|----------------|3-3-3-3-2-2-2-2-| x2 

D|----------------|----------------| 
A|3->let ring till the here > > > >| 
E|----------------|----------------|

Verse & Chorus again 

Bridge:
D|----------------|----------------|----------------|----------------|
A|3-3-3-3-3-3-3-3-|3-3-3-3-3-3-3-3-|3-3-3-3-3-3-3-3-|5-5-5-5-5-5-5-5-|
E|----------------|----------------|----------------|----------------|

D|----------------|----------------|----------------|----------------|
A|----------------|----------------|----------------|5-5-5-5-5-5-5-5-|
E|0-0-0-0-0-0-0-0-|0-0-0-0-0-0-0-0-|0-0-0-0-0-0-0-0-|----------------|

D|----------------|----------------|----------------|----------------|
A|3-3-3-3-3-3-3-3-|3-3-3-3-3-3-3-3-|3-3-3-3-3-3-3-3-|5-5-5-5-5-5-5-5-|
E|----------------|----------------|----------------|----------------|

At the last Chorus there’s a change: 
D|----------------|----------------|----------------|----------------|
A|----------------|----------------|----------------|5-5-5-5-5-5-5-5-|
E|3-3-3-3-3-3-3-3-|0-0-0-0-0-0-0-0-|7-7-7-7-7-7-7-7-|----------------|
 
 

Видео