Hollywood Undead - Been to Hell, аккорды

Прокрутка
Тональность
Шрифт
100
Песня играется в Drop D, то есть шестую струну нужно 
настроить на тон ниже.

Вступление:
e|------------------------------|
B|------------------------------|
G|------------------------------|
D|--2-x-2~-----9-7-5~--2-5-7~---|
A|--2-x-2~-----9-7-5~--2-5-7~---|
D|--2-x-2~-----9-7-5~--2-5-7~---|

Бас в это время играет:
G---------------------|
D---------------------|
A-------2-0-----------|
D--0-0------3---0-3-5-|

Куплет:
e|--------------------------|
B|--------------------------|
G|--------------------------|
D|---222-222-222-222~--x-x--|
A|---222-222-222-222~--x-x--|
D|---222-222-222-222~--x-x--|

e|-------------------------------------------------------------------|
B|-------------------------------------------------------------------|
G|-----------------------------------------------------------x-x-x-x-|
D|--222--------------222--------------222--------------222~--x-x-x-x-|
A|--222-2-0-------0--222-2-0-------0--222-2-0-------0--222~--x-x-x-x-|
D|--222-----5~-2-5---222-----5~-2-5---222~----5~-2-5---222~--x-x-x-x-|

Припев:
e|-------------------------------------------------|
B|-------------------------------------------------|
G|-------------------------------------------------|
D|--222~-22/5-55-0~-000--222~-22/5-55-7~-777-------|x2
A|--222~-22/5-55-0~-000--222~-22/5-55-7~-777-------|
D|--222~-22/5-55-0~-000--222~-22/5-55-7~-777-------|

Бас играет то же, что и во вступлении.
 
 
Свернуть Распечатать

Видео