Hollywood Undead - California Dreaming, аккорды

Прокрутка
Тональность
Шрифт
100
Intro: x4
4)-0------------------1-0-----------------1-
5)-------0-1-0---3-1----------0-1-0---3-1---
6)----0--------0-----------0--------0-------

Verse:
   D5                               D5 D#5  D5  C5   D5 D#5  D5  C5   D5
5)-3h5---------3h5------------------5---6---5---3----5---6---5---3----3h5---------3h5-----------------
6)-----0-0-0-0-----0-0-0-0-0-0-0-0----0---0---0---0----0---0---0---0------0-0-0-0-----0-0-0-0-0-0-0-0-

   D5 D#5 F#5 D#5   D5 D#5  D5  C5
5)-5---6---9---6----5---6---5---3---
6)---0---0---0---0----0---0---0---0-

Verse:
D5
Like a sink hole, like a sink hole
 D5       D#5   D5   C5     D5    D#5   D5   C5             
Stars are born then fucking ate up in a day slow
 D5
What does it show? What does it show?
D5 D#5 F#5 D#5     D5     D#5 D5        C5            
C-c-cut up all the tethers to your lost soul
D5
Think I'm 'bout to die on a dotted line
D5 D#5 D5 C5 D5 D#5 D5 C5
Venice Beach, cutting throats on a shoreline
D5
It ain't a fucking crime, for taking back what's mine
D5 D#5 F#5 D#5 D5 D#5 D5 C5 
Los Angeles, we on a front line!
 D5
Click-click-boom, let them fall
D5 D#5 D5 C5 D5 D#5 D5 C5
Lighting 'em up with the semi-matic auto
D5
Hear the call, hear the call
D5 D#5 F#5 D#5 D5 D#5 D5 C5 
Hop in the whip to tip it straight then I'm out though
D5
When I do it like this 
D5 D#5 D5 C5 D5 D#5 D5 C5
With a wiffle ball bat
D5
Surf's up, bitches, and it's like that
D5 D#5 F#5 D#5 D5 D#5 D5 C5
Hollywood coming to attack

Chorus:
         Dm
I'm no shooting star 
       A# 
Just a burning heart                5)-5---6---5---3----5---6---5---3---
           C                        6)---0---0---0---0----0---0---0---0-
We never sleep in California, we're dreaming       
           Dm                 
Running through the dark, 
        Dm
Broken boulevards                   5)-5---6---5---3----5---6---5---3-----5---6---5---3----5---6---5---3---
           C                        6)---0---0---0---0----0---0---0---0-----0---0---0---0----0---0---0---0-
We never sleep in California, we're dreaming
                       D5
In California, we're dreaming

Intro: x4
4)-0------------------1-0-----------------1-
5)-------0-1-0---3-1----------0-1-0---3-1---
6)----0--------0-----------0--------0-------

Verse:
       D5
I'mma get it now, Armageddon now
 D5  D#5    D5  C5    D5   D#5  D5  C5      
Coked out, skeletons, come back down
  D5
Break them down, gotta break them down
 D5   D#5  F#5  D#5    D5  D#5 D5 C5
Broke down Ford Light, sing so loud
      D5
The greatest story ever told, the greatest five ever known
  D5  D#5 C5 D5       D5    D#5     C5   D5 
(Dead man walking) Audition for the big show
      D5
It's biblical (Social cynical)
D5     D#5     F#5    D#5       D5 D#5        D5  C5    
In the land of make believe the situation's critical
D5
Sink down to the ocean lies some artists at our pinnacle
D5        D#5    D5     C5     D5        D#5      D5 C5   
Yeah, I'm just a vision but my wings are fucking literal
D5
As above (so below)
    D5   D#5    F#5    D#5     D5  D#5   D5  C5 
You wanna go to heaven but you sold your soul
       D5 
Dying young (I'm growing cold)
D5      D#5    D5  C5     D5    D#5  D5 C5 
Cut yourself apart so you don't grow old
      D5
We're living in denial (We're doing it in style)
     D5 D#5 F#5 D#5 D5 D#5 D5 C5
Out here in California, it's a trial.

Chorus:
         Dm
I'm no shooting star 
       A# 
Just a burning heart                5)-5---6---5---3----5---6---5---3---
           C                        6)---0---0---0---0----0---0---0---0-
We never sleep in California, we're dreaming       
           Dm                 
Running through the dark, 
        Dm
Broken boulevards                   5)-5---6---5---3----5---6---5---3-----5---6---5---3----5---6---5---3---
           C                        6)---0---0---0---0----0---0---0---0-----0---0---0---0----0---0---0---0-
We never sleep in California, we're dreaming
                       D5
In California, we're dreaming

Bridge: x2
1)-5------1-0-------5------1-0-----5--6--5-
2)----3-------3-1------3-------3-1---------

       A#
Future tension
               Gm
Hidden in the question
                 Dm         F 
Underneath the dreams I hold
            A#
I can see rejection
             Gm
In my own reflection
                Dm  
I can feel my dreams grow cold
  Dm
Dreams grow cold!

Intro: x4
4)-0------------------1-0-----------------1-
5)-------0-1-0---3-1----------0-1-0---3-1---
6)----0--------0-----------0--------0-------

Chorus:
         Dm
I'm no shooting star 
       A# 
Just a burning heart                5)-5---6---5---3----5---6---5---3---
           C                        6)---0---0---0---0----0---0---0---0-
We never sleep in California, we're dreaming       
           Dm                 
Running through the dark, 
        Dm
Broken boulevards                   5)-5---6---5---3----5---6---5---3-----5---6---5---3----5---6---5---3---
           C                        6)---0---0---0---0----0---0---0---0-----0---0---0---0----0---0---0---0-
We never sleep in California, we're dreaming
                       D5
In California, we're dreaming

Outro: x4
4)-0------------------1-0-----------------1-
5)-------0-1-0---3-1----------0-1-0---3-1---
6)----0--------0-----------0--------0-------

In California...
(In California, we're dreaming)
In California, we're dreaming
(In California, we're dreaming)
In California.

Комментарий автора:

Бой: V v ^ ^ v v v^. 6 струна переведена на тон ниже (Drop D).
 
 
Свернуть Распечатать

Видео