Хошнык - Дурацкое действие, аккорды новинка

Прокрутка
Тональность
Шрифт
100
Интро:
E --------------------------------------------------
B -5-----5/6---6/8--8/9--9--14-13-11--9---9-8-6-5--6
G --------------------------------------------------
D -------------------------------------10-----------
A --------------------------------------------------
E --------------------------------------------------

E -----------------------------------------------------
B ---------8--8-9---9-14-13-11-9--9-8-------------9-8--
G --10--10---------------------------10-9-10----10---10
D -10--10---10----10------------10------------10-------
A -----------------------------------------------------
E -----------------------------------------------------

E --------------------------------------------------------------
B -----8---8-9---9-14-13-11-9---9-8--------------9-8------------
G 10-10-----------------------------10-9-10----10----10-10------
D --10--10---10--------------10--------------10-----------------
A --------------------------------------------------------------
E ---------------------------------------------------0-0-0-0-0-0

Вступление: Fm Bbm Cm7 Fm Fm Bbm Eb Fm

Fm                           Bbm                                
в этом месяце начато следствие
                             Cm7                           
по делу акций "дурацкого действия" -
                                   Fm 
группы вполне установленных личностей -

цели известны, известно количество

Fm                     Bbm
и как верно было отмечено
                          Eb
этим вот молодым человечеком
                          Fm
небезупречно засекреченным
                             Ab
и раскрыто что дальше намечено

Ab
он кинул в окно коктейль,
Db               Cm7
но повезло что он был протеиновым
Fm Bbm Eb Fm   
пей его - 
Ab
больше толку будет от этого
Db                       Cm7
чем от пиздежа и галимой партийности
Fm     Bbm        Eb     Fm
тонны которой ты любишь постить

Комментарий автора:

-5-----5/6--6-6/8--8-8/9--9--14-13-11--9---9-8-6-5--6
Это будет более точное вступление, только если начало слайда играется как форшлаг. 
 
 
Свернуть Распечатать

Видео