Христианские песни - Si Kristo Ay Namatay, аккорды

Прокрутка
Тональность
Шрифт
100
Intro: 
   Dm             Am
e|-1-0---0-1------0-------0-----| 
B|-----3-------3----3-1-3-----1-| 
G|-----------2--------------2---| 
D|-0-------0--------------------| 
A|----------------0-------0-----| 
E|------------------------------| 
 
   E                 Am
e|-0-----0--8-7-5-4--------0----| 
B|-----0-------------1--1-------| 
G|---1-----------------2-2------| 
D|------------------------------| 
A|-------------------0-----0----| 
E|-0-----0----------------------| 
 
 Am               Dm   G7               C
 Si Kristo ay namatay, si Kristo ay nabuhay, 
    Dm        Am      E7              Am
 Si Kristo ay babalik sa wakas ng panahon.
 
 

Видео