Христианские песни - Этот день уже близко ( Вже на порозі ), аккорды

Прокрутка
Тональность
Шрифт
100
Каподастр на 4 ладу

Табулатура:  пісня Вже на порозі вступне соло
(Дорогі брати та сестри користуйтесь)
 
        a7                                       dm
----------------------------------1----------0----------------------------
------1--------3--------5-------3-------------------3-----1---------0-----
--------------------------------------------------------------------------
------2--------3--------5-------0-----------------------------------------
--------------------------------------------------------------------------
------------------------------------------------------------------------3-
                              
--------------0--------1---------------------------------------
-----------3-----------3------------5----------3----------1----
---------------------------------------------------------------
-----------------------0------------5-----------3----------2---
-------------------------------------------------------------3-
---------------------------------------------------------------

---- 1 стр
---- 2 стр
---- 3 стр
---- 4 стр
---- 5 стр
---- 6 стр

Комментарий автора:

Підібрано з відео
 
 
Свернуть Распечатать

Видео