Христианские песни - Поклонюсь Тебе, Иисус (Краеугольный камень), аккорды

Прокрутка
Тональность
Шрифт
100
E|-----------------------------------2----------0-2-0--------
B|-3-------3--------------------------------3---------2-3--2-
G|-----2-------2----0-2-0-----0----2------2------------------
D|-------4-------4---------0-----0------0--------------------
A|-----------------------------------------------------------
E|-----------------------------------------------------------

E|-----------------------------------2----------0-2-0--------
B|-3-------3--------------------------------3---------2-3--2-
G|-----2-------2----2--0-----0----2------2-------------------
D|-------4-------4--------0-----0------0---------------------
A|-----------------------------------------------------------
E|-----------------------------------------------------------
 
 
Свернуть Распечатать

Видео