Христианские песни - Добрая ночь - by Архидиакон Роман Тамберг, аккорды

Прокрутка
Тональность
Шрифт
100
Dm      Gm       A7        Dm
Сумрак вечерний уж пал на поля,
Dm      Gm       A7        Dm
В тихой прохладе уснула земля.
Dm Am   A7   Dm  C    F  A7
Добрая ночь, божий покой,
Dm     Gm     A7        Dm
Божий покров над уснувшей землёй.
Dm Am   A7   Dm  C   F    A7
Добрая ночь, божий покой, 
Dm     Gm      A7          Dm
Божий покров над уснувшей землёй.

Всем кто трудился на ниве земной
Бог посылает – отраду, покой.
Добрая ночь, божий покой
Божий покров над уснувшей землёй.
Добрая ночь, божий покой
Божий покров над уснувшей землёй.

Месяц поднялся, высоко стоит
Блеск серебристый по речке скользит
Добрая ночь, божий покой,
Божий покров над уснувшей землёй.
Добрая ночь, божий покой
Божий покров над уснувшей землёй.

На небе звёзды блестят в высоте
Крест над деревней горит в темноте
Добрая ночь, божий покой,
Божий покров над уснувшей землёй.
Добрая ночь, божий покой,
Божий покров над уснувшей землёй.

Сумрак вечерний уж пал на поля...

Перебор
-------------1-------------------------3----------------------0---------------------1--------------
-------3-------3------------------3------3---------------2------2----------------3-------3----3----
----2----2-------2------------3-----3------3-----------0---0------0-----------2----2-------2--------
-0-------------------------------------------------------------------------0------------------------
-----------------------3---1-------------------1---0-------------------0----------------------------
----------------------------------------------------------------------------------------------------

                       
------1---------------0--------------1------1------1-------------0-------------0------------1------1-----1---
------3---------------1--------------1------1------1-------------2-------------2------------3------3-----3---
---2----2---------0-----0----------2----2------2------2-------0-----0-------0-----0-----2------2------2-----2-
-0------------------------------------------------------------------------------------0---------------------
---------------3--------------------------------------------0-------------4---------------------------------
-------------------------------1----------------------------------------------------------------------------

Комментарий автора:

Перебор
 
 
Свернуть Распечатать

Видео