Я И Друг Мой Грузовик - Мотогонки, аккорды

Прокрутка
Тональность
Шрифт
100
Intro verse (with some variations):
G-----7----14-13-14-13------13       -14-13------------
D-5-7---0--------------12h14--       -------12h14p12h14
A-----------------------------       ------------------
E-----------------------------       ------------------

Chorus:
G---14-------14-----
D-0----------------0     repeat
A------12-14----12--      x4 times
E-------------------

Interlude
G-7/9-9-9--7/9-9--7/9-9-9--7/9-9--7/9-9-9--7/9-9--7/9-9-9-10-10-10
D-5/7-7-7--5/7-7--5/7-7-7--5/7-7--5/7-7-7--5/7-7--5/7-7-7-8—-8—-8-
A--------------------------------------------------------------------
E--------------------------------------------------------------------

Outro: Same as Intro

Дедушка ребенку обещал подарить мотогонки
А мальчик в мотогонки поиграл, и отложил в сторонку
Мама терпела, терпела, да не вытепела до конца
"Зачем ты обижаешь моего отца?" - сказала с горяча
Дедушка ребенку обещал подарить мотогонки
А мальчик мотогонки променял на котенка
Но мама не любит домашних животных,
И с такими вещами разбирается быстро,
А это значит, что в нашем дворе уже никогда не будет мотоциклиста
Всё!
Пока колесики вращаются, То мотогонки не прощаются
 
 

Видео