Iggy And The Stooges - I Wanna Be Your Dog, аккорды

Прокрутка
Тональность
Шрифт
100
Intro: G F# E }x4           

Verse:
    G          F#            E
e|--------------------------------------------------------|
B|--------------------------------------------------------|
G|--12-12-12-12-11-11-11-11--9-9-9-9-9-9------------------|
D|--12-12-12-12-11-11-11-11--9-9-9-9-9-9------------------|
A|--10-10-10-10-9--9--9--9---7-7-7-7-7-7------------------|
E|--------------------------------------------------------|

G             F#         E               
So messed up, I want you here
G             F#         E               
In my room, I want you here
G             F#         E              
Now we're gonna be face-to-face
G             F#         E                
And I'll lay right down in my favorite place

G       F#      E               
And now I wanna be your dog
G   F#      E               
Now I wanna be your dog
G   F#      E               
Now I wanna be your dog

Brake:
    G        E       D        B       C          E
e|--------------------------------------------------------|
B|--------------------------------------------------------|
G|--12-12-12-9-9-9------------------------------12--------|
D|--12-12-12-9-9-9---12-12-12-9-9-9---10--------12—x8-----|
A|--10-10-10-7-7-7---12-12-12-9-9-9---10—x16----10--------|
E|-------------------10-10-10-7-7-7---8-------------------|

            E  
Well, come on

G F# E }x4           

Verse:
    G          F#            E
e|--------------------------------------------------------|
B|--------------------------------------------------------|
G|--12-12-12-12-11-11-11-11--9-9-9-9-9-9------------------|
D|--12-12-12-12-11-11-11-11--9-9-9-9-9-9------------------|
A|--10-10-10-10-9--9--9--9---7-7-7-7-7-7------------------|
E|--------------------------------------------------------|

G             F#         E   
Now I'm ready to close my eyes
G             F#         E   
And now I'm ready to close my mind
G             F#         E   
And now I'm ready to feel your hand
G             F#         E   
And lose my heart on the burning sands

G       F#      E               
And now I wanna be your dog
G       F#      E               
Now I wanna be your dog
G       F#      E               
Now I wanna be your dog

            E  
Well, come on

Комментарий автора:

Можно сыграть заглавный риф на октаву ниже. 
Тогда играться будет так:

Verse:
    G        F#       E
e|--------------------------------------------------------|
B|--------------------------------------------------------|
G|--------------------------------------------------------|
D|--5-5-5-5--4-4-4-4--2-2-2-2-2-2-2-2---------------------|
A|--5-5-5-5--4-4-4-4--2-2-2-2-2-2-2-2---------------------|
E|--3-3-3-3--2-2-2-2--0-0-0-0-0-0-0-0---------------------|

Brake:
    G     E        D       B       C         E
e|--------------------------------------------------------|
B|--------------------------------------------------------|
G|--------------------------------------------------------|
D|--5—5-5-2-2-2---12-12-12-9-9-9---10--------2—-----------|
A|--5—5-5-2-2-2---12-12-12-9-9-9---10—x16----2-x8---------|
E|--3—3-3-0-0-0---10-10-10-7-7-7---8---------0------------|
 
 
Свернуть Распечатать

Видео