Iggy Pop - Tv Eye, аккорды

Прокрутка
Тональность
Шрифт
100
E----------------------------------------------------------------------
B---------------------------------------------------------------------
G---------5------7B-5----5-----------------------------------------
D-7-7-7-5--7-7-----5-7-5-7----------------------------------------
A-0-0-0-----0-0-------0----0----------------------------------------
E---------------------------------------------------------------------

This is the riff for the verse. Just keep on playing until you get to
the chorus:

E---------------------------------------------------------------------
B---------------------------------------------------------------------
G---------5------5------5----5------------------------------------
D-7-7-7-5--7-7-5-7-7-5-7-5-7---------------------------------------
A-0-0-0-----0-0---0-0----0---0----------------------------------------
E---------------------------------------------------------------------

E----------------------------------------------------------------------
B---------------------------------------------------------------------
G---------5------7B-5----5-----------------------------------------
D-7-7-7-5--7-7-----5-7-5-7----------------------------------------
A-0-0-0-----0-0-------0----0----------------------------------------
E---------------------------------------------------------------------

This is the riff for the verse. Just keep on playing until you get to
the chorus:

E---------------------------------------------------------------------
B---------------------------------------------------------------------
G---------5------5------5----5------------------------------------
D-7-7-7-5--7-7-5-7-7-5-7-5-7---------------------------------------
A-0-0-0-----0-0---0-0----0---0----------------------------------------
E---------------------------------------------------------------------
 
 
Свернуть Распечатать

Видео