Iggy Pop - I Wanna Be Your Dog, аккорды

Прокрутка
Тональность
Шрифт
100
Verse
e|--------------------------------------------------------------------------|
B|--------------------------------------------------------------------------|
G|-12----11-----9-----------------------------------------------------------|
D|-12-x4-11-x4--9-x8--------------------------------------------------------|
A|-10----9------7-----------------------------------------------------------|
E|-0-----0------0-----------------------------------------------------------|

Chorus
e|---------------------------------------------------------------------------|
B|---------------------------------------------------------------------------|
G|-12----11-----9------------------------------------------------------------|
D|-12-x4-11-x8--9-x4------------all that 3X----------------------------------|
A|-10----9------7------------------------------------------------------------|
E|-0-----0------0------------------------------------------------------------|

then:
e|---------------------------------------------------------------------------|
B|---------------------------------------------------------------------------|
G|-12-----9-----7-----4-----5------9-----------------------------------------|
D|-12-x4--9-x4--7-x4--4-x4--5-x16--9-x16-------------------------------------|
A|-10-----7-----5-----2-----3------7-----------------------------------------|
E|-0------0-----0-----0-----0------0-----------------------------------------|
 
 
Свернуть Распечатать

Видео