Iggy Pop - Gimmie Danger, аккорды

Прокрутка
Тональность
Шрифт
100
Intro (acoustic):
Em9 D/E C/G A
Eb-------2----------0--------3----------------------------------------------|
Bb---------0----------3--------0------2-------------------------------------|
Gb-----------0----------2--------0-------2----------------------------------|
Db----------------0------------------------2--------------------------------|
Ab-------------------------3-------0----------------------------------------|
Eb----0---------------------------------------------------------------------|

and then straight into the MAIN RIFF through the verse:
Em G C
Eb------------------------------------------------|
Bb--------------------------------------0---------|
Gb-----------------------------------0------------|
Db--2----2----2----------0--------3---------------|
Ab--2----2----2-------------0---2-----------------|
Eb--0----2----0--0--3-----------------------------|

D/E
there's n...
Em9
in my d...
C/G A
just some ugly memories
D/E Em9 C/G A
kiss me like the ocean b....

(Enter electric guitar with heavy distortion, main riff continues)

Bridge:
(hard strumming)
Em F# G D/E Em

fade out with arpeggiated chords and soloing electric guitar
 
 
Свернуть Распечатать

Видео