Iggy Pop - I Need Somebody, аккорды

Прокрутка
Тональность
Шрифт
100
Intro: 8x
|-------------------------------------|
|-------------------------------------|
|-------------------------------------|
|-------------------------------------|
|---5---5---12--11--10----8--8---5----|
|---3---3---10--9---8-----6--6---3----|
 
Verse:
|---------------------------------------------------------------|
|---------------------------------------------------------------|
|-----------------------------------8-----8-------7-------7-----|
|------------------------5---3--------8-----8--------7-------7--|
|-5-5-----3---5------------------6------6------5--------5-------|
|-3-3--3----------6---3-----------------------------------------|

Chorus: These are just the chords
|-3-------1-------3---------------------------------|
|-3-------1-------3---------------------------------|
|-3-------1-------5-------5---5---5--5--3-------3---|
|-5-------3-------5------------------------3-5------|
|-5-------3-------3---------------------------------|
|-3-------1-----------------------------------------|
 
 
Свернуть Распечатать

Видео