Iggy Pop - Search And Destroy, аккорды

Прокрутка
Тональность
Шрифт
100
The Intro Chords Are C#(IX) and F# :
 F#
|--9
|--11
|--11
|--11
|--9
|--9

C# C# C# F# F# F# C# C# C# C# C# F# F# F# C# C#

The Main Riff:
1 2
e----------------------------------------------------------------------------|
b----------------------------------------------------------------------------|
g------9-1111^-11-9-11-9------9Slide up 11 Slide down 9----------------------|
d--11---------------------------11------------------------------------11--9--|
a----------------------------------------------------------------------------|
E----------------------------------------------------------------------------|

1 bend about a quarter of the way 2 play
the nine softly then play the next part
e------------------12141214^14-12--------|
b-1414141214-----------------------------|
g----------------------------------------|
d----------------------------------------|
a----------------------------------------|
E----------------------------------------|

C# E A C# C# C# F# F# F#
I'm a street walking cheetah with a heart full of napalm
C# E A C# C# C# F# F# F#
I'm a runaway son of the nuclear a-bomb
C# B A B
I am a world's forgotten boy
C# B A B
The one who searches and destroys
 
F F#
|--1--------------| For this part slide from F to F# then with your
|--1--------------| finger That's on the a string hit those 4 notes
|--2--------------|
|--3--------------|
|--3---------2-4--|
|--1--2-4---------|

Then go to the A(V) chord
a
|--5-----------| Use the Method above to hit the 4 notes
|--5-----------|
|--6-----------|
|--7-----------|
|--7-------5-7-|

|--5-5-7-------|
Now go to the E chord Use the Method above to hit the 4 notes then
E G#
|--0-----------------4-|
|--0-----------------4-|
|--1-----------------5-|
|--2-----------------6-|
|--2--------0-2-----6--|
|--0-0-2------------4--|

Chorus:
F F# A
Honey gotta help me please
E
Somebody gotta save my soul
G#
Baby detonate for me
C# E A C# C# C# F# F# F#
Look out honey, 'cause i'm using technology
C# E A C# C# C# F# F# F#
Ain't got time to make no apology
C# B A B
Soul radiation in the dead of night
C# B A B
Love in the middle of a fire fight

CHORUS: Use The way That was used before
F F# A
Honey gotta strike me blind
E
Somebody gotta save my soul
G#
Baby penerate my mind

C# B A B
And I'm the world's forgotten boy
C# B A B
The one who's searchin', searchin' to destroy
C# B A B
And honey I'm the world's forgotten boy
C# B A B
The one who's searchin', searchin' to destroy
 
e------------------------------------------------------------------------------|
b------------------------------------------------------------------------------|
g------9Slide to this fret1111^-11-9-11-9----9Slide up 11 Slide down 9---------|
d--11--------------------------------------------11---------------------11--9--|
a------------------------------------------------------------------------------|
E------------------------------------------------------------------------------|
 at those parts do a quick C# F# trill
e-----------------12141214^14-12-14--|
b-1414141214-------------------------|
g------------------------------------|
d------------------------------------|
a------------------------------------|
E------------------------------------|

C# E A C# C# C# F# F# F#
Look out honey, 'cause i'm using technology
C# E A C# C# C# F# F# F#
Ain't got time to make no apology
C# B A B
Soul radiation in the dead of night
C# B A B
Love in the middle of a fire fight

CHORUS: Use The way That was used before

F F# A
Honey gotta strike me blind
E
Somebody gotta save my soul

G#
Baby penerate my mind
C# B A B
And I'm the world's forgotten boy
C# B A B
The one who's searchin', searchin' to destroy
C# B A B
And honey I'm the world's forgotten boy
C# B A B
The one who's searchin', searchin' to destroy
When you hear the Guitar going crazy in the
background you can either play chords or do
part on the 14th and 12th frets slowly at
first then just do hammer on's and pulloffs at
14th and 12th frets on the high e string
C# B A B
Forgotten boy, forgotten boy
C# B A B
Forgotten boy said hey forgotten boy
 
 
Свернуть Распечатать

Видео