Iggy Pop - Search And Destroy (intro), аккорды

Прокрутка
Тональность
Шрифт
100
Intro (distortion)
E|----------------------|---------------|-----10--10-10-10----|
B|----------------------|---------------|-----10--10-10-10----|
G|-------------------10-|---------------|-----11--11-11-11----|
D|-12-12-12-12-12-10----|-8-8-8-8-8--10-|-----12--12-12-12----|
A|-12-12-12-12-12-8-----|-8-8-8-8-8--10-|-----12--12-12-12----|
E|-10-10-10-10-108------|-6-6-6-6-6--8--|-10--10--10-10-10----|
P.M.----------------------------------|

Intro (continued)
E|-10-10-10-10----10----|
B|-12-12-12-12----10----|
G|-12-12-12-12----11----|
D|-12-12-12-12----12----|
A|-10-10-10-10----12----|
E|----------------10----|
 
 
Свернуть Распечатать

Видео