Iggy Pop - Gimmie Danger, аккорды

Прокрутка
Тональность
Шрифт
100
Main Riff (Guitar 1) ((Acoustic))
E|--------------------------------------------------------------------------|
B|-----6---------4---------7----------------------------------------------0-|
G|-------8---------6---------8------------------------------------------0---|
D|--8------8---6-----6---9-----9--------------------------------------0-----|
A|--6----------4---------9----------6--6----------5-------------5---3-------|
E|-----------------------7----------4--4---0--0---3---0---0-0-3---0---------|

(Guitar 2) ((Acoustic))
(Not Featured on the Live Version)
E|------------------------------------|
B|------------------------------------|
G|-----------------------4-----4------|
D|-----------------------4-----4----6-|
A|-------------5----5----2-----2----6-|
E|--0-----0----3----3---------------4-|

(Guitar 1) ((Acoustic))
On "Theres Nothing in my Dreams..."
E|-------------------------------|
B|-------------------------------|
G|--6--------8--------4----------|
D|--6--------8--------4--------6-|
A|--4--------6--------2--------6-|
E|-----------------------------4-|

(Guitar 2) ((Electric))
On "Kiss Me Like the Ocean Breeze"

(Guitar 3) ((Electric))
E|-------------------------------------|
B|-------------------------------------|
G|-----------------------------------4-|
D|--------5--2---------------------5---|
A|--------5--2------------5---3--5-----|
E|--0--0--3--0----0--0--3---3----------|

Solo 1
E|-------------------------------------------------------|
B|-------------------------------------------------------|
G|-------------------------------------------------------|
D|-------------------------------------------------------|
A|--/6v---6--6--2-4-2-4-2--2---/6v---6--6--2-4-2-4-2-----|
E|-------------------------------------------------------|
1:16

E|-----------------------------------------------------------------|
B|-----------------------------------------------------------------|
G|-----------------------------------------------------------------|
D|-----------------------6-6-6-4------4--6b--6brp4-4---------------|
A|--/6-6-6-6-6-4------4-----------4h6----------------6-------4-4h6-|
E|----------------4h6------------------------------------4h6-------|
1:24

E|--------------------------------------------------------------------|
B|--------------------------------------------------------------------|
G|--------------------------------------------------------------------|
D|------------------6-6-6-6-6-4----7b-7b-7brp4--4-------------------|
A|--/6-6-6-6-6-4--4--------------4------------------6---6-6-6-6-4-----|
E|----------------------------------------------------------------6-4-|
1:31

E|--------------------------------------------------------------------------|
B|-------------------------------------------------------------11--11--11---|
G|---------------------------------6---6-6h8v-8v-8v-8v-8v-6-8--13b-13b-13br-|
D|------------------4----------6h8---8--------------------------------------|
A|-----------4-4--6---6-----------------------------------------------------|
E|--4-4--6-6--------------6/9-----------------------------------------------|
1:38

E|-----------------------------|
B|-----------------------------|
G|--13p11----------------------|
D|--------13v--13p11----11h13v-|
A|-------------------13--------|
E|-----------------------------|

(Guitar 2) ((Electric))
On "Find Your Little Stranger"
E|---------------------------------------------------------------------------|
B|---------------------------------------------------------------------------|
G|--8-8-8-8-8---------11-11-11-11-11-11-11-11------------------------8-8-8-8-|
D|--8-8-8-8-8--11-11--11-11-11-11-11-11-11-11--11-11-11-11-11-11-11--8-8-8-8-|
A|--6-6-6-6-6--11-11---9--9--9--9--9--9--9--9--11-11-11-11-11-11-11--6-6-6-6-|
E|--------------9--9----------------------------9--9--9--9--9--9--9----------|

E|--------|
B|--------|
G|--8-8-8-|
D|--8-8-8-|
A|--6-6-6-|
E|--------|

(Guitar 2) ((Electric))
Outro (Rhythm)
E|---------------------------------------------------------------|
B|---------------------------------------------------------------|
G|--8~~~~~~~~~~~--8--8---6~~~~~~~~~~~~--6--6---4~~~~~~~~~~~~-|
D|--8~~~~~~~~~~~--8--8---6~~~~~~~~~~~~--6--6---4~~~~~~~~~~~~-|
A|--6~~~~~~~~~~~--6--6---4~~~~~~~~~~~~--4--4---2~~~~~~~~~~~~-|
E|---------------------------------------------------------------|

E|-----------------------|
B|-----------------------|
G|--4-4----------------|
D|--4-4--6~~~~~~~~~~~~-|
A|--2-2--6~~~~~~~~~~~~-|
E|---------4~~~~~~~~~~~~-|

Outro (Lead)
E|---------------------------------------------------------------------|
B|---------------------------------------------------------------------|
G|--11h13--11h13--11h13--11h13--11h13-------13-10--13-10--13-10--13-10-|
D|-------------------------------------13------------------------------|
A|---------------------------------------------------------------------|
E|---------------------------------------------------------------------|
1:52

E|------------------------------------------------------------------------|
B|-------------16-13--16-13--16-13--16-13--16-13------14-11--14-11--14-11-|
G|--13-10----------------------------------------13v----------------------|
D|--------11--------------------------------------------------------------|
A|------------------------------------------------------------------------|
E|------------------------------------------------------------------------|
1:58

E|-----------------------------------------------------------------------|
B|--14-11--14-11---------------------------------------------------------|
G|---------------11v---------------11-13--11-13--11-13--11-13------------|
D|--------------------------11-13----------------------------------------|
A|--------------------11-13------------------------------------11-9------|
E|------------------------------------------------------------------11-9-|
2:05

E|--------------------------------------------------------------|
B|--------------------------------------------------------------|
G|-------------13-11--13-11--13-11--13-11--13-11----------------|
D|--------------------------------------------------------------|
A|-------9-11------------------------------------/13-11---------|
E|--9-11------------------------------------------------13-11-9-|
2:09

E|---------------------------------------------------------------------|
B|--------------------------------------16--------------------16-------|
G|--/15--/15-13-13h15-13----13h15-15-15----15-15--13h15-15-15----15-15-|
D|-----------------------15--------------------------------------------|
A|---------------------------------------------------------------------|
E|---------------------------------------------------------------------|
2:14

(Repeat this part
10 more times)

E|-----------------------|
B|--------------16-------|
G|--13h15-15-15----15-15-|
D|-----------------------|
A|-----------------------|
E|-----------------------|
2:19

E|----------------------------------------------------------------|
B|----------------------------------------------------------------|
G|--15-15-15-13-11-13-11-8--8-6---6b~rb-------6br-6p4----8b--8v~~-|
D|------------------------------8---------------------6-----------|
A|----------------------------------------------------------------|
E|----------------------------------------------------------------|
2:27

E|----------------------------------------------------------------------|
B|----------------------------------------------------------------------|
G|-----------------------------6b~~-6b----------------------------------|
D|--8p6---------------------------------6br-4---4-----------------------|
A|------8--98-6--6-4-----------------------6---6-4-6-4---4-----------|
E|----------------------6-4-6-----------------------------6---6-4-6-4-2-|
2:34

E|------------------------------------------------------------------------|
B|---------9b-7---7---7--------------11-----------------------------------|
G|--9b--8v------8---8---8-6---6------13br---------------------------------|
D|--------------------------8---8-6-------13v--13-13-11----11-------------|
A|------------------------------------------------------13----13-11-13-11-|
E|------------------------------------------------------------------------|
2:39

E|-----------------------------------7---------------------------------------|
B|---------9b-7---7---7--------------9b--------------------------------------|
G|--9b--8v------8---8---8-6---6---------8v--8-8-6---6------------------------|
D|--------------------------8---8-6---------------8---8-6-8-6---6------------|
A|------------------------------------------------------------9---9--6-6-9-6-|
E|---------------------------------------------------------------------------|
2:39

E|-------------------------7---7-----------------------------------------------|
B|--7----------------------9b--9br9p7-----7------------------------------------|
G|--9b--8v--8-8-6---6-----------------8v--9b--8v--8-8-6---6--------------------|
D|----------------8---8-6-------------------------------8---6---6---6----------|
A|------------------------------------------------------------9---9---9--6---6-|
E|-------------------------------------------------------------------------9---|
2:47

E|-----------------------------------------------------------------------------|
B|----------------------------------------------------4---4-----4----4---------|
G|----------------------------------------------------6b--6b----6b---6brp4---4-|
D|------------------6br----------------------------------------------------6---|
A|------6---6---9-6-----9-6-9-6----------------6---6---------------------------|
E|--6-9---9---9-----------------9-9-6-4--4-6-9---9-----------------------------|
2:54

E|-----------------------------------------------------------------------------|
B|-4--6b-4v--------------------------------------------------------------------|
G|-6b--------------------------------------------------------------------------|
D|----------6b-4---4---4-----------------------4------------4---4--6br---4---4-|
A|---------------6---6---6-4-----4-----4-6-4-6---6--6-6-4-6---6--------6---6---|
E|---------------------------4-6---4-6-----------------------------------------|
3:01

E|-----------------------------------------------------------------------------|
B|------------------------------------------------11--11---11--11--11--11--11--|
G|-----------------------------------11--11-11-13-13b-13b--13b-13b-13b-13b-13b-|
D|------------------------11-13-11-13--13--------------------------------------|
A|-11-13-11-13-11-13-11-13-----------------------------------------------------|
E|-----------------------------------------------------------------------------|
3:09

E|-----------------------------------------------------------------------------|
B|--11---11----11--------------------------------------------------------------|
G|--13b--13b---13brp11----11----11-------------11-----11-----------------------|
D|---------------------13----13----13-11-13v------13-----13--13-13-11----11----|
A|--------------------------------------------------------------------13----13-|
E|-----------------------------------------------------------------------------|
3:12

E|---------------------------------------11-9----9h11-------------------|
B|-----------------------------------7--------11------11-9----9---------|
G|-----------------------------------9b--------------------11---11-8----|
D|-------------------------------------------------------------------11-|
A|--13-13-11----11------------------------------------------------------|
E|-----------14----14-11-9--9-11-14-------------------------------------|
3:18

E|--------------------------------------------------------------------------|
B|---11-11------11-11------11-11------11-11-------11-11-------11p9----------|
G|---------11p8-------11p8-------11p8-------11p8--------11p8-------11-8v~~~-|
D|--------------------------------------------------------------------------|
A|--------------------------------------------------------------------------|
E|--------------------------------------------------------------------------|
3:22 End
 
 
Свернуть Распечатать

Видео