Iggy Pop - 1969, аккорды

Прокрутка
Тональность
Шрифт
100
Intrо:
Q=106 
Am 
4/4 
Gtr II 
Е Q Н Н Н Н Н Н Н Н 
| | | | 
/ / / / 
 
Gtr I 
Е Е Е Н +Е Е Е Е Н Q Е Е Н +Е Е Е Е Н +Е Е Е Е 
|-5-----||-5----(5)-5-----|-5---------5-|-5----(5)---5---|-5----(5)--------|| 
|-5-7---||-5----(5)-5---5-|-5----5--5-5-|-5----(5)-5-5---|-5----(5)-5-7----|| 
|-5-7-5-||-5----(5)-5-7-5-|-5----5--7-5-|-5----(5)-5-7-5-|-5----(5)-5-7----|| 
|---7-5-||------------7-5-|------5----5-|----------5---5-|------------7-5--|| 
|-------||----------------|-------------|----------------|-----------------|| 
|-------||----------------|-------------|----------------|-----------------|| 
 
Faster Q=212(8=s8) 
Q Е Е +Q Q W W W 
| | | 
/ / / 
 
Q. Е +Q Q +Е Q. Q Q Q. Е +Q Q +Е Q. Q Q 
||------------------|----------------|-5--------------|------------------|| 
||о-------5-(5)-----|----------------|-5--------------|-----------------о|| 
||--------5-(5)-----|-------------5--|-5----5-(5)-----|-------------5----|| 
||--7-----5-(5)--7--|-(7)-5----7--5--|-7----5-(5)--7--|-(7)-5----7--5----|| 
||о-7-----7-(7)--7--|-(7)-5----7--5--|-7----5-(5)--7--|-(7)-5----7--5---о|| 
||--5-----5-(5)--5--|-(5)-5----5--5--|-5----5-(5)--5--|-(5)-5----5--5----|| 
 
Verses 
$ 
Q. Е +Q Q +Е Q. Q Q Q. Е +Q Q +Е Q. Q Q 
||-----------------|----------------|----------------|-----------------| 
||о------5-(5)-----|-----5----------|----------------|-----------------| 
||-------5-(5)-----|-----5-------5--|----------------|-----------------| 
||--7----5-(5)--7--|-(7)-5----7--5--|-7----5-(5)--7--|-(7)-5----7--5---| 
||о-7----5-(5)--7--|-(7)-5----7--5--|-7----5-(5)--7--|-(7)-5----7--5---| 
||--5----5-(5)--5--|-(5)-5----5--5--|-5----5-(5)--5--|-(5)-5----5--5---| 
 
Q. Е +Q Q +Е Q. Q Q Q. Е +Q Q +Е Q. Q Q 
|----------------|----------------|-5--------------|-----------------|| 
|----------------|----------------|-5--------------|----------------о|| 
|----------------|-------------5--|-5----5-(5)-----|-----5-------5---|| 
|-7----5-(5)--7--|-(7)-5----7--5--|-7----5-(5)--7--|-(7)-5----7--5---|| 
|-7----5-(5)--7--|-(7)-5----7--5--|-7----5-(5)--7--|-(7)-5----7--5--о|| 
|-5----5-(5)--5--|-(5)-5----5--5--|-5----5-(5)--5--|-(5)-5----5--5---|| 
 
Pre-Сhоrus 
W +Н. E E W +Н. +Q 
|----------|--------------|----------|----------------| 
|----------|--------------|----------|----------------| 
|----------|--------------|----------|----------------| 
|-7--------|-(7)------7-7-|-5--------|-(5)------(5)/--| 
|-7--------|-(7)------7-7-|-5--------|-(5)------(5)/--| 
|-5--------|-(5)------5-5-|-3--------|-(3)------(3)/--| 
 
D.S.
Q. Е +Q Q +Е Q. Q Q Q. Е +Q Q +Е Q. Q Q 
||-----------------|----------------|----------------|------------------|| 
||о----------------|-------------5--|----------------|-----5-----------о|| 
||-------5-(5)-----|-------------5--|------5-(5)-----|-----5-------5----|| 
||--7----5-(5)--7--|-(7)-5----7--5--|-7----5-(5)--7--|-(7)-5----7--5----|| 
||о-7----5-(5)--7--|-(7)-5----7--5--|-7----5-(5)--7--|-(7)-5----7--5---о|| 
||--5----5-(5)--5--|-(5)-5----5--5--|-5----5-(5)--5--|-(5)-5----5--5----|| 
 
Bridge 
Q. Е +Q Q +Е Q. Q Q Q. Е +Q Q +Е Q. Q Q 
||-----------------|-----5----5--5--|------5-(5)-----|-----5---------| 
||о------5-(5)-----|-----5----6--5--|------5-(5)-----|-----6-------5-| 
||--7----5-(5)--7--|-(7)-5----7--5--|-7----5-(5)--7--|-(7)-5----7--5-| 
||--7----5-(5)--7--|-(7)-5----7--5--|-7----5-(5)--7--|-(7)-5----7--5-| 
||о-5----5-(5)--5--|-(5)-5----5--5--|-5----5-(5)--5--|-(5)-5----5--5-| 
||-----------------|----------------|----------------|---------------| 
 
1. 
Q. Е +Q Q +Е Q. Q Q Q. Е +Q Q +Е Q. Q Q 
|------5-(5)--5--|-(5)---------5--|----------------|-------------5---|| 
|------5-(5)--5--|-(5)---------5--|------5-(5)-----|-----5-------5--о|| 
|------5-(5)--5--|-(5)-5-------5--|------5-(5)-----|-----5-------5---|| 
|-7----5-(5)--7--|-(7)-5----7--5--|-7----5-(5)--7--|-(7)-5----7--5---|| 
|-7----5-(5)--7--|-(7)-5----7--5--|-7----5-(5)--7--|-(7)-5----7--5--о|| 
|-5----5-(5)--5--|-(5)-5----5--5--|-5----5-(5)--5--|-(5)-5----5--5---|| 
 
2. 
W +Н. Е Е W +Н +Н 
|----------|--------------|----------|---------------| 
|----------|--------------|----------|---------------| 
|----------|--------------|----------|---------------| 
|-7--------|-(7)------7-7-|-5--------|-(5)----(5)----| 
|-7--------|-(7)------7-7-|-5--------|-(5)----(5)----| 
|-5--------|-(5)------5-5-|-3--------|-(3)----(3)----| 
 
A5 
Gtr I 
W +Н. Q 
| | | 
/ / / 
 
Gtr II 
|-3-| |-3--| |-3-| |-3-| 
Q. Е +Q Е Е Е Е Е Е Е Е Е Е Е Е Q 
|-------------------|------------------------| 
|-------------------|------------------------| 
|-9----9-(9)--9-9-9-|--9--9-9-9-9-9-9-9-9-9--| 
|-7----7-(7)--7-7-7-|--7--7-7-7-7-7-7-7-7-7--| 
|-0----0-(0)--0-0-0-|--0--0-0-0-0-0-0-0-0-0--| 
|-------------------|------------------------| 
 
G5 
W W 
| | 
/ / 
 
|-3-| |-3-| |-3-| 
Q. Е Е Е Е Е Е Е Е Е Е Е Е Q Q 
|------------------|---------------------|| 
|------------------|---------------------|| 
|-9----9-9-9-9-9-9-|-9-9-9-9-9-9-9--9----|| 
|-7----7-7-7-7-7-7-|-7-7-7-7-7-7-7--7----|| 
|-0----0-0-0-0-0-0-|-0-0-0-0-0-0-0--0----|| 
|------------------|---------------------|| 
 
Сhоrus 
A5 
Н Q Q Е Е Q Е Е Q 
| | | | | | | | | 
/ / / / / / / / / 
 
|-3-| |--3--| |-3-| 
Q. Е Е Е Е Е Е Е Е Е Е Е Е Н 
|------------------|----------------------| 
|------------------|----------------------| 
|-9----9-9-9-9-9-9-|-9-9---9-9-9-9-9------| 
|-7----7-7-7-7-7-7-|-7-7---7-7-7-7-7------| 
|-0----0-0-0-0-0-0-|-0-0---0-0-0-0-0------| 
|------------------|----------------------| 
 
G5 
W Q Q Q +Q 
| | | | | 
/ / / / / 
 
|-3-| |-3-| |-3-| |-3-| |-3-| 
Н Е Е Е Е Е Е Е Е Е Е Е Е Е Е Е Q 
|------------------|-----------------------| 
|------------------|-----------------------| 
|-9----9-9-9-9-9-9-|-----------------------| 
|-7----7-7-7-7-7-7-|-7-7-7-7-7-7-7-7-7--7--| 
|-0----0-0-0-0-0-0-|-----------------------| 
|------------------|-----------------------| 
 
A5 
W +Е Е Е Е Е Е Q 
| | | | | | | | 
/ / / / / / / / 
 
|-3-| |-3-| |--3--| |--3--| |--3--| 
Н Е Е Е Е Е Е Е Е Е Е Е Е Е Е Е Q 
|------------------|-----------------------------| 
|------------------|-----------------------------| 
|-9----9-9-9-9-9-9-|--9-9---9-9-9---9-9-9---9-9--| 
|-7----7-7-7-7-7-7-|--7-7---7-7-7---7-7-7---7-7--| 
|------------------|-----------------------------| 
|------------------|-----------------------------| 
 
G5 
W Q Q Е Е Q 
| | | | | | 
/ / / / / / 
 
|-3-| |-3-| |-3-| |-3-| |--3--| |-3-| 
Н Е Е Е Е Е Е Е Е Е Е Е Е Е Е Е Е Е Е 
|------------------|---------------------------| 
|------------------|---------------------------| 
|-9----9-9-9-9-9-9-|-9-9-9-9-9-9-9-9---9-9-9-9-| 
|-7----7-7-7-7-7-7-|-7-7-7-7-7-7-7-7---7-7-7-7-| 
|------------------|---------------------------| 
|------------------|---------------------------| 
 
A5 G5 
Н. Q Н +Е Е Q Н. +Е Е Q Q Q Q 
| | | | | | | | | | | | | 
/ / / / / / / / / / / / / 
 
Q Е Е Q Q +W +W +Н. Q 
|----------------|----------------|---------------|--------------------|| 
|----------------|----------------|---------------|--------------------|| 
|-9---9-9-9--/9--|-(9)------------|-(9)-----------|-(9)--------12b14===|| 
|-7---7-7-7--/7--|-(7)------------|-(7)-----------|-(7)----------------|| 
|----------------|----------------|---------------|--------------------|| 
|----------------|----------------|---------------|--------------------|| 
 
Guitar Sоlо 
A5 C/D D5 C/D 
Н. Е Е Q Q Q Q 
| | | | | | | 
/ / / / / / / 
 
+Q +Q Е Е Е Е Q Е +Е +Q +Q 
|-------------------------|-----------------------------| 
|-------------------------|-----------------------------| 
|-(12)r=(12)-----------12h|=14--14b16==(14)-(14)--(14)r=| 
|-------------14-12h14----|-----------------------------| 
|-------------------------|-----------------------------| 
|-------------------------|-----------------------------| 
 
A5 XII G5 X 
Q. Е +Н +Е Е Q Q Q 
| | | | | | | | 
/ / / / / / / / 
 
~~~~~~~ 
+Е Е Е Е +Q Е Е Е Е Е Е Е Е +Q 
|---------------------------|------------------------------| 
|---------------------------|----12----12------------------| 
|-(14)-12h14-12-(12)--------|----12----12-14-14b16==(14)r==| 
|---------------------14-12h|=14----12---------------------| 
|---------------------------|------------------------------| 
|---------------------------|------------------------------| 
 
A5 XII 
Н. Q +Е Е Е Е Q Q 
| | | | | | | | 
/ / / / / / / / 
 
|--3---| 
+Q Е Е +Е Е Q +Н. +Е +Е Е 
|-------------------------|------------------------| 
|----------------6--------|------------------------| 
|-(14)-------------7pb8===|=(7)----------(7)r(7)p5-| 
|---------/8-(8)----------|------------------------| 
|-------------------------|------------------------| 
|-------------------------|------------------------| 
 
G5 X 
Q. Е+Q Q +Е Е Е Е Q Q 
| | | | | | | | | | 
/ / / / / / / / / / 
 
|-3--| |3| 
Q Q Q Е Q Е Е S Е S Е Е Q. +Е
|-------------------|----------------------------| 
|-------------------|----------------------------| 
|-7--5--------------|----------------------------| 
|------7----5h7-5---|--------5h7-7s9b10=====(9)--| 
|-----------------7-|--5h7-----------------------| 
|-------------------|----------------------------| 
 
A5 XII 
Н. Е Е +Q Q Е Е Q 
| | | | | | | | 
/ / / / / / / / 
 
|3| 
+Q +Q Q Е Q Е Е Q +Q +Q 
|--------------------|------------------------| 
|--------------------|------------------------| 
|--------------------|------------------------| 
|-(9)r=(9)--7--5h7---|--5---------------------| 
|--------------------|----7-5pb6===(5)r==(5)--| 
|--------------------|------------------------| 
 
G5 X 
Q. Е +Q Q +Е Е Q Q Q 
| | | | | | | | | 
/ / / / / / / / / 
 
|3| |3| |3| |3| |3| |3| 
+Е Е Е Q Е Q Е Q Е Q Е Q Е Q Е Е 
|----------------------|----------------------| 
|----------------------|----------------------| 
|------------------7h9-|--7h9---7h9-7h9-9s14--| 
|-------5h7----7h9-----|----------------------| 
|-(5)-7----------------|----------------------| 
|----------------------|----------------------| 
 
A5 XII 
Н. Q +Е Е Е Е Q Q 
| | | | | | | | 
/ / / / / / / / 
 
+W Е Е Е Е Е Е Е Е 
|--------------|-------------------------| 
|--------------|-------------------------| 
|-(14)---------|-14-14-14-14-14-14-14s16-| 
|--------------|-------------------------| 
|--------------|-------------------------| 
|--------------|-------------------------| 
 
G5 X 
Q. Е +Q Q +Е Е Е Е Q Q 
| | | | | | | | | | 
/ / / / / / / / / / 
 
|---3---| |--3--| |--3--| |3-| 
S Е S Е Е Е Е Е Е Е Е Е Е Е Е Е Е Q Q 
|----------------------------------------|------------------------| 
|----------------------------------------|------------------------| 
|-16--16-16-16-17---17-17-17-17-17-17-17-|-19---19-19-19-19-19⁄---| 
|----------------------------------------|------------------------| 
|----------------------------------------|------------------------| 
|----------------------------------------|------------------------| 
 
A5 XII G5 X 
Н. Е Е +Q Q Е Е Q Q. Е +Q Q +Е Е Q Q Q 
| | | | | | | | | | | | | | | | | 
/ / / / / / / / / / / / / / / / / 
 
W +W Q. Е +Q Q Q. Е +Q Q 
|-------------|----------------|------------------|-------------------| 
|-------------|----------------|------------------|--3------5-(5)--3--| 
|-------------|----------------|-4pb5---4-(4)--4--|-------------------| 
|-------------|----------------|------------------|-------------------| 
|-0-----------|-(0)------------|------------------|-------------------| 
|-------------|----------------|------------------|-------------------|  
 
A5 XII 
Н. Q +Е Е Е Е Q Q 
| | | | | | | | 
/ / / / / / / / 
 
|3| |--3--| 
a +Q +Q Н +Q Е Q Q Q Q 
|----------------5-----|-(5)------------------| 
|-5b8==(5)r=(5)--5-----|-(5)---3h5---3--------| 
|----------------------|---------------4---2⁄-| 
|----------------------|----------------------| 
|----------------------|----------------------| 
|----------------------|----------------------| 
 
G5 X 
Q. Е +Q Q +Е Е Е Е Q Q 
| | | | | | | | | | 
/ / / / / / / / / / 
 
|3| 
W +Е Е Е Е Q Е Q 
|---------------|------------------| 
|-0-------------|-(0)--------------| 
|-0-------------|-(0)-0h2-0-2--0h2-| 
|---------------|------------------| 
|---------------|------------------| 
|---------------|------------------| 
  
A5 XII 
Н. Е Е +Q Q Е Е Q 
| | | | | | | | 
/ / / / / / / / 
 
|3-| |3| |3| 
Q +Q +Е Q Е Q Е Е Е Q a Н 
|------------------------|--0----------------| 
|-1b2===(1)r=(1)---------|--1---1h3-3s5------| 
|----------------2-0-2---|----2--------------| 
|------------------------|-------------------| 
|------------------------|-------------------| 
|------------------------|-------------------| 
  
G5 X 
Q. Е +Q Q +Е Е Q Q Q 
| | | | | | | | | 
/ / / / / / / / / 
 
|--3--| 
+Q Е Е Q Q a Н Q Q Q 
|-----------8-----|-3s=5------5-5---5--| 
|-(5)--3h5-----5--|--------------------| 
|-----------------|--------------------| 
|-----------------|--------------------| 
|-----------------|--------------------| 
|-----------------|--------------------| 
 
A5 XII 
Н. Q +Е Е Е Е Q Q 
| | | | | | | | 
/ / / / / / / / 
 
|-3--| |--3--| |--3--| |-3-| |-3-| 
Q Q Q E E E E E E E E E E E E E E E E 
|-5--5-5-5-5-5-5-|--5-5---5-5-5---5-5-5-5-5-5-5-| 
|----------------|------------------------------| 
|----------------|------------------------------| 
|----------------|------------------------------| 
|----------------|------------------------------| 
|----------------|------------------------------| 
  
G5 X 
Q. Е +Q Q +Е Е Е Е Q Q 
| | | | | | | | | | 
/ / / / / / / / / / 
 
|-3--| |--3--| |-3-| |-3-| |--3--| |---3---| |--3--| |--3--| 
Е Е Е Е Е Е Е Е Е Е Е Е Е Е Е Е Е Е Е Е Е Е Е Е 
|-5--7-7-7-7---7--7-7-7-8-8-8-|--8-8---8-10-10---10-10-10-10-10-12-12----| 
|-----------------------------|------------------------------------------| 
|-----------------------------|------------------------------------------| 
|-----------------------------|------------------------------------------| 
|-----------------------------|------------------------------------------| 
|-----------------------------|------------------------------------------| 
 
A5 XII 
Н. Е Е +Q Q Е Е Q 
| | | | | | | | 
/ / / / / / / / 
 
|3-| |--3--| 
Е Q +Q Е Е Е +Е Е +Е Е Е Е +Н 
|-12s14-(14)--10h12h14-(14)----|-----------------------------| 
|---------------------------13-|-(13)-11⁄--------------------| 
|------------------------------|----------5s12b13==(12)------| 
|------------------------------|-----------------------------| 
|------------------------------|-----------------------------| 
|------------------------------|-----------------------------|  
 
G5 X 
Q. Е +Q Q +Е Е Q Q Q 
| | | | | | | | | 
/ / / / / / / / / 
 
|--3--| 
+Q Q a +Н +Н Q Q Q 
|---------------------------|-------------------| 
|---------------------------|-------------------| 
|-(12)r--4---7b7.5==(7)-----|-(7)r------5h7---5-| 
|---------------------------|-------------------| 
|---------------------------|-------------------| 
|---------------------------|-------------------| 
 
A5 XII 
Н. Q +Е Е Е Е Q Q 
| | | | | | | | 
/ / / / / / / / 
 
~~~ 
|3| 
+Q Q Е Q Q Q Q Q a +Q 
|----------------|-----------------------| 
|----------------|-----------------------| 
|-(5)---------5--|--5---7---5--5b7==(5)--| 
|------7--5h7----|------7---5------------| 
|----------------|-----------------------| 
|----------------|-----------------------| 
 
G5 X 
Q. Е +Q Q +Е Е Е Е Q Q 
| | | | | | | | | | 
/ / / / / / / / / / 
 
+Q Q Q a +Q +Н. +Q 
|-------------------------|-------------------| 
|-------------------------|-------------------| 
|-(5)r-------5--7b9==(7)--|-(7)r=========(7)--| 
|-------7----5------------|-------------------| 
|-------------------------|-------------------| 
|-------------------------|-------------------| 
  
A5 XII 
Н. Е Е +Q Q Е Е Q 
| | | | | | | | 
/ / / / / / / / 
 
Q. a +Е +Н Q +Е +Е +Q a +Q 
|-------------------------|------------------------------------| 
|-5-----------------------|------------------------------------| 
|-5----7b9==(7)-(7)r------|--7b8===(7)b9==(7)-(7)r---7b9==(7)--| 
|-------------------------|------------------------------------| 
|-------------------------|------------------------------------| 
|-------------------------|------------------------------------| 
 
G5 X 
Q. Е +Q Q +Е Е Q Q Q 
| | | | | | | | | 
/ / / / / / / / / 
 
+Q. a +Е +Q a +Q a +Н +Q a +Q 
|----------------------------------|-------------------------------| 
|----------------------------------|-------------------------------| 
|-(7)r---7b9==(7)-(7)r--7b9==(7)r--|-7b9==(7)r=====(7)--7b8==(7)r--| 
|----------------------------------|-------------------------------| 
|----------------------------------|-------------------------------| 
|----------------------------------|-------------------------------|  
 
A5 XII 
Н. Q +Е Е Е Е Q Q 
| | | | | | | | 
/ / / / / / / / 
 
|3| 
Е +Q. +Q Е Е Е Е Е Q Q +Q 
|---------------------|--------------------| 
|---------------------|------------5-------| 
|-7b9==(7)r==(7)--5h7-|--5---------5--(5)--| 
|---------------------|----7-5h7-----------| 
|---------------------|--------------------| 
|---------------------|--------------------| 
  
G5 X 
Q. Е +Q Q +Е Е Е Е Q Q 
| | | | | | | | | | 
/ / / / / / / / / / 
 
+Q Q Е Е Q +Н Q Q 
|------------------|------------------| 
|------7----5---5--|-(5)-------5------| 
|-(5)--7----5---5--|-(5)-------5------| 
|-------------7----|--------------5---| 
|------------------|------------------| 
|------------------|------------------| 
 
A5 XII G5 X 
Н. Е Е +Q Q Е Е Q Q. Е +Q Q +Е Е Q Q Q 
| | | | | | | | | | | | | | | | | 
/ / / / / / / / / / / / / / / / / 
 
|3| |3| 
Q. Е +Q Q Q Q Е Q Q Q. Е +Q Q a +Н E Q +Q 
|-----------------|-----------------|----------------|-------------------------| 
|-7----7-(7)--7---|-----------------|-5----5-(5)-----|-------------------------| 
|-7----7-(7)--7---|--5--7--5-7---5--|-5----5-(5)--5--|-5b7==(5)r---------------| 
|-----------------|-----------------|-5----5-(5)--5--|----------------7-5-(5)--| 
|-----------------|-----------------|----------------|-------------------------| 
|-----------------|-----------------|----------------|-------------------------| 
 
A5 XII G5 X 
Н. Q +Е Е Е Е Q Q Q. Е +Q Q +Е Е Е Е Q Q 
| | | | | | | | | | | | | | | | | | 
/ / / / / / / / / / / / / / / / / / 
 
|3| |3| |3| 
Q. Е +Q Q Q Н. +Н Е Q Е Q Е Q Н Q 
|----------------|------------------|-------------------|-------------------| 
|----------------|--8s==10----------|-(10)--------------|-------------------| 
|-7----7-(7)--7--|--7s===9----------|--(9)------7h9-7---|--------7------7---| 
|-7----7-(7)--7--|------------------|-----------------9-|--7h9--------------| 
|----------------|------------------|-------------------|-------------------| 
|----------------|------------------|-------------------|-------------------| 
 
A5 XII 
Н. Е Е +Q Q Е Е Q 
| | | | | | | | 
/ / / / / / / / 
 
|--3--| 
a +Q. E +Н +Q Q Е Е Е Q 
|-------------------------|--------------------| 
|-------------------------|--------------------| 
|-9b11==(9)r---9-(9)------|-(9)--9--9-9---9-9--| 
|-------------------------|--------------------| 
|-------------------------|--------------------| 
|-------------------------|--------------------| 
 
G5 X 
Q. Е +Q Q +Е Е Q Q Q 
| | | | | | | | | 
/ / / / / / / / / 
 
|3-| 
Q. Е +Н +Q Е Q +Q Q 
|--------------------|-------------------------| 
|--------------------|-------------------------| 
|-/14----12-(12)-----|-(12)---12-12-(12)--12---| 
|--------------------|-------------------------| 
|--------------------|-------------------------| 
|--------------------|-------------------------| 
 
A5 XII 
Н. Q +Е Е Е Е Q Q 
| | | | | | | | 
/ / / / / / / / 
 
Q. Е +Е Q Е Е Е Е Е Е Е Е Е 
|------------------------|-------------------------| 
|------------------------|-------------------------| 
|-/16----14-(14)-12------|-------------------------| 
|---------------------14-|-12----------------------| 
|------------------------|----14-12-12-14-12-10-12-| 
|------------------------|-------------------------| 
 
G5 X 
Q. Е +Q Q +Е Е Е Е Q Q 
| | | | | | | | | | 
/ / / / / / / / / / 
 
|--3--| 
Е Е Е Е Е Е Е Е Е +Е Е Q Е Е Е Е 
|-----------------------------|---------------------------| 
|-----------------------------|---------------------------| 
|-----------------------------|---------------------------| 
|-----------------------------|---------------------------| 
|-10-----------10----10-12-10-|-(10)----12---10-12-12-----| 
|-----12-10-12----12----------|------12---------------12--| 
 
A5 XII 
Н. Е Е 
| | | 
/ / / 
 
Е Е Е +Е +Е S S Е S S 
|-----------------------------------------| 
|-----------------------------------------| 
|-----------------------------------------| 
|--------------------------------12----12-| 
|-12--12s14b15==(14)-(14)r-12h14----14----| 
|-----------------------------------------| 
 
G5 X 
+Q Q Е Е Q Q. Е +Q Q +Е Е Q Q Q 
| | | | | | | | | | | | | | 
/ / / / / / / / / / / / / / 
 
|-3-| 
Е S S S Е. +Н +Q Е Е +Е Е Q +Q Е Е Е Е Е Е Е 
|---------------------------|-------------------|---------------------| 
|---------------------------|-------------------|---------------------| 
|----------9-9b11==(9)r=====|=(9)--7---------8--|-(8)-----------7---7-| 
|-14-(0)-9------------------|--------9-(9)-7-0--|-(0)---x-9-7h9---9---| 
|---------------------------|-------------------|---------------------| 
|---------------------------|-------------------|---------------------| 
 
A5 XII G5 X 
Н. Q +Е Е Е Е Q Q Q. Е +Q Q +Е Е Е Е Q Q 
| | | | | | | | | | | | | | | | | | 
/ / / / / / / / / / / / / / / / / / 
 
TP TP TP TP 
Е +Е +Н. +Н Н W Н Е +Е Q 
|---------------------|-----------------|---------------|-------------------| 
|---------------------|-----------------|---------------|-------------------| 
|-9b11==(9)-(9)-------|-(9)-------9-----|-9-------------|--9-------9r(9)-9--| 
|---------------------|-----------------|---------------|----------------7--| 
|---------------------|-----------------|---------------|----------------0--| 
|---------------------|-----------------|---------------|-------------------| 
 
A5 XII G5 X 
Н. Е Е +Q Q Е Е Q Q. Е +Q Q +Е Е Q Q Q 
| | | | | | | | | | | | | | | | | 
/ / / / / / / / / / / / / / / / / 
 
+Н. Е Е +Q Q Q Q +Е Q. +Н +Н Е Q. 
|--------------|----------------|-------------------|-------------------| 
|--------------|----------------|-------------------|-------------------| 
|-(9)------9-9-|-(9)--9--9---7--|-(7)-7-----(7)-----|-(7)------/9-9-----| 
|-(7)------7-7-|-(7)--7--7---5--|-(5)-5-----(5)-----|-(5)------/7-7-----| 
|-(0)------0-0-|-(0)--0--0------|-------------------|-------------------| 
|--------------|----------------|-------------------|-------------------| 
 
A5 XII G5 X 
Н. Q +Е Е Е Е Q Q Q. Е +Q Q +Е Е Е Е Q Q 
| | | | | | | | | | | | | | | | | | 
/ / / / / / / / / / / / / / / / / / 
 
+W +Q Н Q W +Е Q. Q Q 
|-------------|-----------------|---------------|------------------| 
|-------------|-----------------|---------------|------------------| 
|-(9)---------|-(9)---9------9--|-7-------------|-(7)-7------7--7--| 
|-(7)---------|-(7)---7------7--|-5-------------|-(5)-5------5--5--| 
|-------------|-----------------|---------------|-----0------0--0--| 
|-------------|-----------------|---------------|------------------| 
 
A5 XII 
Н. Е Е +Q Q Е Е Q 
| | | | | | | | 
/ / / / / / / / 
 
|---3---| 
Q. Е +Q Е Е Е Q Е Е Н 
|---------------------------|----------------| 
|-10----10-(10)--10-10---10-|-10-------------| 
|--9-----9--(9)---9--9----9-|--9--5----------| 
|--7-----7--(7)---7--7----7-|--7--5-7-5------| 
|---------------------------|----------------| 
|---------------------------|----------------| 
 
G5 X 
Q. Е +Q Q +Е Е Q Q Q 
| | | | | | | | | 
/ / / / / / / / / 
 
+Q Q Е Е Q +Q Q Q Q 
|------------------|----------------| 
|------------------|----------------| 
|------------------|----------------| 
|-(5)--7----5h7-5--|-(5)---5--5--5--| 
|------------------|----------------| 
|------------------|----------------| 
  
A5 XII G5 X 
Н. Q +Е Е Е Е Q Q Q. Е +Q Q +Е Е Е Е Q Q 
| | | | | | | | | | | | | | | | | | 
/ / / / / / / / / / / / / / / / / / 
 
a W +W +W +W 
|--------------|-----------------|----------------|------------------| 
|--------------|-----------------|----------------|------------------| 
|--------------|-----------------|----------------|------------------| 
|-5h7----------|-(7)-------------|-(7)------------|-(7)--------------| 
|--------------|-----------------|----------------|------------------| 
|--------------|-----------------|----------------|------------------| 
 
A5 XII G5 X 
Н. Е Е +Q Q Е Е Q Q. Е +Q Q +Е Е Q Q Q 
| | | | | | | | | | | | | | | | | 
/ / / / / / / / / / / / / / / / / 
 
+W +W +W +W 
|----------------|------------------|------------------|------------------| 
|----------------|------------------|------------------|------------------| 
|----------------|------------------|------------------|------------------| 
|-([7])----------|-([7])------------|-([7])------------|-([7])------------| 
|----------------|------------------|------------------|------------------| 
|----------------|------------------|------------------|------------------| 
 
A5 XII G5 X 
Н. Q +Е Е Е Е Q Q Q. Е +Q Q +Е Е Е Е Q Q 
| | | | | | | | | | | | | | | | | | 
/ / / / / / / / / / / / / / / / / / 
 
+W +W +Q Е Е Е Е Е Е Е Е Q Q Q 
|---------------|-------------------|---------------------|----------------| 
|---------------|-------------------|---------------------|----------------| 
|---------------|-------------------|---------------------|----------------| 
|-([7])---------|-([7])-------------|-([7])--5h7--5h7-5h7-|--5h7-7---7--7--| 
|---------------|-------------------|---------------------|----------------| 
|---------------|-------------------|---------------------|----------------| 
 
A5 XII 
Н. Е Е +Q Q Е Е Q 
| | | | | | | | 
/ / / / / / / / 
 
a Н +Q Е Е +Н. Q 
|----------------------|-----------------| 
|----------------------|-----------------| 
|-7s10-----(10)⁄--4s13-|-(13)---------5s=| 
|----------------------|-----------------| 
|----------------------|-----------------| 
|----------------------|-----------------| 
 
G5 X 
Q. Е +Q Q +Е Е Q Q Q 
| | | | | | | | | 
/ / / / / / / / / 
 
Q. Е Н +Е Q Е Q Q 
|----------------|------------------------| 
|----------------|------------------------| 
|-16----8-18-----|-(18)-------7s16--------| 
|----------------|------17⁄---------17⁄---| 
|----------------|------------------------| 
|----------------|------------------------| 
 
A5 XII G5 X 
Н. Q +Е Е Е Е Q Q Q. Е +Q Q +Е Е Е Е Q Q 
| | | | | | | | | | | | | | | | | | 
/ / / / / / / / / / / / / / / / / / 
 
Н Н +W Е Q Е +Н +Е Е Е Е Е Е Q 
|-------------|-----------------|----------------|------------------| 
|-------------|-----------------|----------------|------------------| 
|-------------|-----------------|----------------|------------------| 
|-0-----------|-----------------|-5h7--7-(7)-----|-(7)-5h7-5h7-5h7--| 
|-------0-----|-(0)-------------|-0--------------|------------------| 
|-------------|-----------------|----------------|------------------| 
 
A5 XII G5 X 
Н. Е Е +Q Q Е Е Q Q. Е +Q Q +Е Е Q Q Q 
| | | | | | | | | | | | | | | | | 
/ / / / / / / / / / / / / / / / / 
 
Е Q Е +Н +Е Е Е Е Е Е Е Е Q. Е +Н +Е Е Е Е Е Е +Q 
|-----------------|-------------------|----------------|-----------------------| 
|-----------------|-------------------|----------------|-----------------------| 
|-----------------|-------------------|----------------|---------5h7-5b6==(5)--| 
|-5h7--7-(7)------|-(7)-5h7-5h7-5h7-5h|=7----7-(7)-----|-(7)-5h7---------------| 
|-----------------|-------------------|----------------|-----------------------| 
|-----------------|-------------------|----------------|-----------------------| 
 
A5 XII G5 X 
Н. Q +Е Е Е Е Q Q Q. Е +Q Q +Е Е Е Е Q Q 
| | | | | | | | | | | | | | | | | | 
/ / / / / / / / / / / / / / / / / / 
 
|--3--| |3-| 
+Н +Н +Н Q Q Q Q. Е Е Е Е Е Е Е Е Е +Е Q +Q 
|----------------|-------------------|-----------------|---------------------*| 
|----------------|-------------------|-----------------|---------------------*| 
|-(5)r===(5)-----|-(5)-------5-5---5-|-5-----------5---|---------------------*| 
|----------------|-------------------|------7--5h7---7-|--5h7-5-3-(3)--------*| 
|----------------|-------------------|-----------------|--------------3-(3)--*| 
|----------------|-------------------|-----------------|---------------------*|
 
 
Свернуть Распечатать

Видео