Игорь Корнелюк - Насовсем, аккорды

Прокрутка
Тональность
Шрифт
100
Вступление: Am
   Am               D              Dm           Am
E--------12-----10-8-7-8-----10----8-7-5--------10----8-7-5-----------
B--10-----------------------10---------------8--10---------------8-10-
G--------------------------------------------------------------------- - 2p.
D---------------------------------------------------------------------
A---------------------------------------------------------------------
E---------------------------------------------------------------------
 
  Am         Dm     G C
Для кого-то снова весна
          F Dm
Звезды в ряд
  E              Am
Где-то сезон дождей,
          Dm     G C
А где-то свет из окна,
         F Dm
Там не спят,
 E                   Am
Может быть ждут гостей

Am Dm     G        C   F Dm
      Мой друг от меня ушел,
 E          Am
Было ровно семь...
Am Dm     G        C   B7 E
      Мой друг от меня ушел 
      Am Dm E
Насовсем...
      Am Dm E
Насовсем...

Он ко мне тогда опоздал
Не беда.. 
просто попал в час-пик
Он на прощанье сказал:
"Ерунда,
все хорошо, старик!"

Мой друг от меня ушел,
Было ровно семь
Мой друг от меня ушел
Насовсем...
Насовсем...
E      Am 
 Насовсем...

Проигрыш: 
   Am               D              Dm           Am
E--------12-----10-8-7-8-----10----8-7-5--------10----8-7-5-----------
B--10-----------------------10---------------8--10---------------8-10-
G--------------------------------------------------------------------- - 2p.
D---------------------------------------------------------------------
A---------------------------------------------------------------------
E---------------------------------------------------------------------

  A#m     D#m     G# C#
Телефон ночами молчит,
       F# D#m
Мне теперь 
 F              A#m
некого больше ждать...
       D#m     G# C#
А если кто-то звонит 
       F# D#m
в эту дверь
   F              A#m
Мне ни к чему бежать...

A#m D#m  G#      C#   F# D#m
      Мой друг от меня ушел,
 F          A#m
Было ровно семь...
A#m D#m   G#     C#   C7 F
      Мой друг от меня ушел 
      A#m D#m F
Насовсем...
      A#m D#m F
Насовсем...
      A#m D#m F
Насовсем...
F      A#m 
 Насовсем...

Проигрыш: 
   A#m              D#             D#m       A#m
E--------13-----11-9-8-9-----11----9-8-6--------11----9-8-6-----------
B--11-----------------------11---------------9--11---------------9-11-
G--------------------------------------------------------------------- - 4p.
D---------------------------------------------------------------------
A---------------------------------------------------------------------
E---------------------------------------------------------------------
 
 
Свернуть Распечатать

Видео