Игорь Тальков - Чистые пруды, аккорды

Прокрутка
Тональность
Шрифт
100
Вступление:
E|-----------18-
B|--------------
G|-------18----- x3 
D|----18--------
A|-18-----------
E|--------------

E-----------18-----------------------18-------
B---------------19----16----------------19----
G-------18--------18------------18--------18--
D----18-----------------------18--------------
A-18-----------------------18-----------------
E---------------------------------------------

E-----------18------------
B-------------------------
G-------18---------------- x4 
D----18-------------------
A-18---------|9--|--------
E--------------|-9-|------
                Bass

C#m F#m B E | A F#m G# C#m

    C#m                     G#
У каждого из нас на свете есть места, 
    G#7                        C#m
Куда приходим мы на миг отъединиться, 
      F#m                  F#m/D#   C#m
Где память, как строка почтового листа, 
F#m                             C#m  G#
Нам сердце исцелит, когда оно томится. 

 C#m                    F#m
Чистые пруды, застенчивые ивы, 
B                       E  G# G#7
Как девчонки, смолкли у воды, 
  C#m                     F#m F#m/D#
Чистые пруды, веков зеленый сон, 
G#                     G#7
Мой дальний берег детства, 
                 C#m
Где звучит аккордеон. 

Проигрыш:
 C#m             F#m              B                           E
E----------------------0--0-------------0----------------------------------4-
B--2-1-2----------2---4--4----------2-4--4-4-2-2-0-0----------0--------------
G---------1------1------------2-----2---------------------2----1-2--2-1------
D----------------------------------------------------------------------------
A----------------------------------------------------------------------------
E----------------------------------------------------------------------------
  A                         F#m           G#                    C#m
E--4-5-7-9--7-5-4-5-4-5---2--2-0---7-5-------5-4---0-2-0----0-------------
B----------------------------2--------4------------------------------4--2-
G----------------------------------------------5----------1--------1------
D--------------------------------------------------6----------------------
A-------------------------------------------------------------------------
E-------------------------------------------------------------------------

    C#m                     G#
И я спешу туда - там льется добрый свет, 
    G#7                        C#m
И лодки на воде - как солнечные пятна, 
      F#m                  F#m/D#   C#m
Отсюда мы с тобой ушли в круженье лет, 
F#m                             C#m  G#
И вот я снова здесь, и ты придешь обратно! 

 C#m                    F#m
Чистые пруды, застенчивые ивы, 
B                       E  G# G#7
Как девчонки смолкли у воды, 
  C#m                     F#m F#m/D#
Чистые пруды, веков зеленый сон, 
G#                     G#7
Мой дальний берег детства, 
                C#m A
Где звучит аккордеон. 

    Dm                              A
Однажды ты пройдешь бульварное кольцо, 
       A7                           Dm
И в памяти твоей мы встретимся, наверно, 
     Gm        Gm/E    Dm
И воды отразят знакомое лицо, 
Gm                      Dm       A
И сердце исцелят, и успокоят нервы. 

Dm                          Gm
Чистые пруды, застенчивые ивы, 
C                       F  A A7
Как девчонки, смолкли у воды, 
  Dm          Dm/C         Gm Gm/E
Чистые пруды, веков зеленый сон, 
A                       A7
Мой дальний берег детства, 
                   Dm
Где звучит аккордеон. 

Проигрыш:
  Dm                Gm               C                          F
E----------------------1--1-------------1----------------------------------5-
B--3-2-3----------3---5--5----------3-5--5-5-3-3-1-1----------1--------------
G---------2------2------------3-----3---------------------3----2-3--3-2------
D----------------------------------------------------------------------------
A----------------------------------------------------------------------------
E----------------------------------------------------------------------------

  A#                         Gm             A                    
E--5-6-8-10--8-6-5-6-5-6---3--3-1---8-6----------6-5--3-1-------5-4---2-0--0----------------
B------------------------------3--------5-------------------------------------------------4-
G-----------------------------------------------6-------------2-----2----------1-----1----1-
D-------------------------------------------------------7-----------------------------------
A-------------------------------------------------------------------------------------------
E-------------------------------------------------------------------------------------------

    Dm                             A
У каждого из нас на свете есть места, 
       A7                           Dm
Что нам за далью лет все ближе, все дороже, 
     Gm        Gm/E    Dm
Там дышится легко, там мира чистота, 
Gm                      Dm       A
Нас делает на миг счастливее и моложе. 

Dm                          Gm
Чистые пруды, застенчивые ивы, 
C                       F  A A7
Как девчонки, смолкли у воды, 
  Dm          Dm/C         Gm Gm/E
Чистые пруды, веков зеленый сон, 
A                       A7
Мой дальний берег детства, 
                   Dm
Где звучит аккордеон.

Заключение:
 C#m             F#m              B                           E
E----------------------0--0-------------0----------------------------------4-
B--2-1-2----------2---4--4----------2-4--4-4-2-2-0-0----------0--------------
G---------1------1------------2-----2---------------------2----1-2--2-1------
D----------------------------------------------------------------------------
A----------------------------------------------------------------------------
E----------------------------------------------------------------------------

  A                         F#m           G#                    C#m
E--4-5-7-9--7-5-4-5-4-5---2--2-0---7-5-----------5-4--2-0----0-9-------
B----------------------------2--------4------------------------------4-
G-----------------------------------------------5-------------1----1---
D-------------------------------------------------------6--------------
A----------------------------------------------------------------------
E----------------------------------------------------------------------

Комментарий автора:

F#m/D# [xx1222]
Gm/E [xx2333]
Dm/C [x30231]
 
 
Свернуть Распечатать

Видео